» » »

Falling In Reverse, The Westerner Tabs (ver.1)

Artists:  A B C D E F G H I J K L M N O P Q R S T U V W X Y Z # 

The Westerner Tabs (ver.1)

Falling In Reverse Tabs
Rating:
1/5 (1 vote)
The Westerner lessons Tabs too difficult? Try these video lessons and learn fast
                                                    Falling in Reverse - The Westerner

Tunnig Drop C

Intro:X1 for example pick the 10-12 a couple times - palm mute a bit
|----------------------------------------------------------------------------|
|----------------------------------------------------------------------------|
|-10--10--9--9--6-6-6-6-6-10--10--9--9---------------------------------------|
|---12--12-10-10------------12--12-10-10-77777-7-7-7-7-5-5-5-5-2-2-2-2-7-7-7-|
|----------------------------------------55555-5-5-5-5-3-3-3-3-0-0-0-0-5-5-5-|
|----------------------------------------------------------------------------|

|--------------|
|--------------|
|--------------|
|7-5-5-5-5-2222|
|5-3-3-3-3-0000|
|--------------|

Verse: reapeat intro for a bit then do this 2x
|---------------------------------------------------------------------------|
|---------------------------------------------------------------------------|
|7-5-2----------------------------------------------------------------------|
|7-5-2----------------------------------------------------------------------|
|5-3-0----------------------------------------------------------------------|
|---------------------------------------------------------------------------|


Chorus:x2(not really sure bout the chorus)
|---------------------------------------------------------------------------|
|---------------------------------------------------------------------------|
|---------------------------------------------------------------------------|
|-77-77-77-55-55-55-55-55-55-7777-77----------------------------------------|
|-55-55-55-55-55-55-33-33-33-7777-77----------------------------------------|
|----------55-55-55----------7777-77----------------------------------------|

Verse:
|---------------------------------------------------------------------------|
|---------------------------------------------------------------------------|
|-5--5---5-5-2--5-5-0-------------------------------------------------------|
|-7--7---7-5-2--7-5-2-7-7-7-7-5-5-5-5-2222-22-------------------------------|
|-5--5---5-3-0--5-3-0-5-5-5-5-3-3-3-3-0000-00-------------------------------|
|-----12\-------------------------------------------------------------------|

 Do Chorus again

Bridge:a couple times
|---------------------------------------------------------------------------|
|---------------------------------------------------------------------------|
|---------------------------------------------------------------------------|
|--88-88-77-77-3333333------------------------------------------------------|
|--88-88-77-77-3333333------------------------------------------------------|
|--88-88-77-77-3333333--8888-7777-------------------------------------------|

Solo: I Dunno?!?!??!!!

Then do Chorus again
for outro

tabbeb by Jaames'
            

comments powered by Disqus
↑ Back to top | Falling In Reverse Tabs for The Westerner. Lyrics for acoustic guitar and electric guitar. Tablatures and chords are parodies/interpretations of the original songs. You may use it for private study, scholarship, research or language learning purposes only