>
 >
The Westerner

The Westerner Bass Tabs

Falling In Reverse - The Westerner chords, tabs, tablatures, lyrics

Guitar lessons | Add/correct | Request | Top 50 tabs Artists:  A B C D E F G H I J K L M N O P Q R S T U V W X Y Z 0-9

The Westerner Bass Tabs – Falling In Reverse

CD, Sheet music, Poster

Do you like The Westerner? Share with your friends now
Bass TabsChordsTabsTabs v2Ukulele
F|-10--10--10--10--10--10--10--10--9--9--9--9---------9-|
C|---12--12--12--12--12--12--12--12-10-10-10-7-7~~-7----|
G|------------------------------------------------------|
C|------------------------------------------------------|

F|-10--10--10--10--10--10--10--10--9--9--9--9---------|
C|---12--12--12--12--12--12--12--12-10-10-10-10-------|
G|-----------------------------------------------0000-|
C|----------------------------------------------------|


0:13
F|---------------------------------------------------------------|
C|---------------------------------------------------------------|
G|-5-5-5-5-5-5-5-5-3-3-3-3-0-0-0-0-5-5-5-5-5-5-5-5-3-3-3-3--0000-|
C|---------------------------------------------------------------|


0:24
F|-10--10--10--10--10--10--10--10---|
C|---12--12--12--12--12--12--12--12-|
G|----------------------------------|
C|----------------------------------|

F|-10--10--10--10--10--10--10--10--9--9--9--9---------9-|
C|---12--12--12--12--12--12--12--12-10-10-10-7-7~~-7----|
G|------------------------------------------------------|
C|------------------------------------------------------|

F|-10--10--10--10--10--10--10--10--9--9--9--9---|
C|---12--12--12--12--12--12--12--12-10-10-10-10-|
G|----------------------------------------------|
C|----------------------------------------------|

0:40
F|-------------------------------------------------------------------------|
C|-------------------------------------------------------------------------|
G|-5-5-5555-5-5-5555-5-5-5555-5-5-5555-3-3-3333-3-3-3333-0-0-0000-0-0-0000-|
C|-------------------------------------------------------------------------|

F|----------------------------------------------------------------------------|
C|----------------------------------------------------------------------------|
G|-5-5-5555-5-5-5555-5-5-5555-5-5-5555-3-3-3333-3-3-3333-0-0-0000-0-0-0000-5--|
C|----------------------------------------------------------------------------|

0:56
F|-----------------------------------------------------------------|
C|-----------------------------------------------------------------|
G|-5--5555-5--5555-5--5555-5--5555---------------------------------|
C|---------------------------------3--3333-3--3333-3--3333-3--3333-|

F|-------------------------------------------------------------|
C|-------------------------------------------------------------|
G|---------------------------------0--0000-0--0000-0--0(x16)---|
C|-5--5555-5--5555-5--5555-5--5555-----------------------------|

F|-----------------------------------------------------------------|
C|---------------------------------3--3333-3--3333-3--3333-3--3333-|
G|-5--5555-5--5555-5--5555-5--5555---------------------------------|
C|-----------------------------------------------------------------|

F|----------------------------------------------------------|
C|----------------------------------------------------------|
G|---------------------------------0--0000-0--0000--0-0-0-0-|
C|-5--5555-5--5555-5--5555-5--5555--------------------------|

1:23
F|-----------------------------------------|
C|-------------------------/1212-121097531-|
G|-5-5-5-5-5-5-5-5-5-5-5-5-----------------|
C|-----------------------------------------|

1:28
F|------------------------------------------------|
C|-0(x32)-----------------------------------------|
G|----------3(x16)---0(x16)---5(x32)---3(x16)---0-|
C|------------------------------------------------|

1:42
F|---------------------------------------------------------------|
C|------------------------------------------------------------53-|
G|-5-5-5-5-5-5-5-5-3-3-3-3-0-0-0-0-5-5-5-5-5-5-5-5-3-3-3-3--30---|
C|---------------------------------------------------------------|

1:53
F|-----------------------------------------------------------------|
C|-----------------------------------------------------------------|
G|-5--5555-5--5555-5--5555-5--5555---------------------------------|
C|---------------------------------3--3333-3--3333-3--3333-3--3333-|

F|-------------------------------------------------------------|
C|-------------------------------------------------------------|
G|---------------------------------0--0000-0--0000-0--0(x16)---|
C|-5--5555-5--5555-5--5555-5--5555-----------------------------|

F|-----------------------------------------------------------------|
C|---------------------------------3--3333-3--3333-3--3333-3--3333-|
G|-5--5555-5--5555-5--5555-5--5555---------------------------------|
C|-----------------------------------------------------------------|

F|----------------------------------------------------------|
C|----------------------------------------------------------|
G|---------------------------------0--0000-0--0000--0-0-0-0-|
C|-5--5555-5--5555-5--5555-5--5555--------------------------|

2:20
F|----------------------------------------------------------|
C|--------3-3333--------------------------------------------|
G|-1-1111---------------5-5555----------------1-1111-0-0000-|
C|---------------5-5555---------3-3333-3-3333---------------|

F|--------------------------------------------------------|
C|--------3-3333------------------------------------------|
G|-1-1111---------------5-5555----------------1-1-1-0-0-0-|
C|---------------5-5555---------3-3333-3-3333-------------|

F|----------------------------------------------------------|
C|--------3-3333--------------------------------------------|
G|-1-1111---------------5-5555----------------1-1111-0-0000-|
C|---------------5-5555---------3-3333-3-3333---------------|

F|--------------------------------------------------------|
C|--------3-3333------------------------------------------|
G|-1-1111---------------5-5555----------------1-1-1-0-0-0-|
C|---------------5-5555---------3-3333-3-3333-------------|

2:46
F|-------------------------------------------------------|
C|-------------------------------------------------------|
G|-------------------------------------------------------|
C|-0-0000-3-0000-5-0000-3-0-5-0-0000-3-0000-5-0000-3-0-5-|

F|---------------------------------------------------------|
C|---------------------------------------------------------|
G|---------------------------------------------------------|
C|-0-0000-3-0000-5-0000-3-3-3-00000000-3-0000-5-0000-3-3-3-|

F|---------------------------|
C|---------------------------|
G|-----------------------5~\-|
C|-0000-3-3-3-0000-5-5-5-----|

3:06
F|---------------------------------|
C|---------------------------------|
G|---------------------------------|
C|-3--3333-3--3333-3--3333-3--3333-|

F|-------------------------------------------------------------|
C|-------------------------------------------------------------|
G|---------------------------------0--0000-0--0000-0--0(x16)---|
C|-5--5555-5--5555-5--5555-5--5555-----------------------------|

F|-----------------------------------------------------------------|
C|---------------------------------3--3333-3--3333-3--3333-3--3333-|
G|-5--5555-5--5555-5--5555-5--5555---------------------------------|
C|-----------------------------------------------------------------|

F|------------------------------------------------------------|
C|------------------------------------------------------------|
G|---------------------------------0--0000-0--0000--3-0-------|
C|-5--5555-5--5555-5--5555-5--5555----------------------5-3-0~|





Comments


Popular Falling In Reverse tabs & chords
Game Over 2 Bass Tabs
Goddamn Bass Tabs
Goodbye Graceful Bass Tabs
Listen Up Bass Tabs
Rolling Stone 2 Bass Tabs
Self Destruct Personality Bass Tabs
The Drug In Me Is You 2 Chords
Tragic Magic Chords
Raised By Wolves Tabs
The Westerner Intro 1 Tabs


Song lyrics



↑ Back to top | Tablatures and chords are parodies/interpretations of the original songs. You may use it for private study, scholarship, research or language learning purposes only
© 2014 AZChords.com Contact us | Privacy policy | DMCA | Add/correct tabs | Request tabs | Top 50 tabs