» » »

Faith No More, Last Cup Of Sorrow Bass tabs (ver.3)

Artists:  A B C D E F G H I J K L M N O P Q R S T U V W X Y Z # 

Last Cup Of Sorrow Bass tabs (ver.3)

Faith No More Tabs
Rating:
0/5 (0 votes)
Hard to play? Try these video lessons and learn fast.
                Last Cup Of Sorrow
(C) 1997 FNM Music (ASCAP)

       E s s s s s E s e s s   E s e s s E s s s s s  2x E s s s s s E s e s s
---||------r-----------r-----|-----r---------r--------||-----r-----------r-----|
4:-||*-----e-----------e-----|-----e---------e-------*||-----e-----------e-----|
4:-||*-----s-----------s-----|-----s---------s-------*||-----s-----------s-----|
---||--3-3-t-3-0-0-0-0-t-0-0-|-0-0-t-0-0-0-0-t-0-3-0--||-3-3-t-3-0-0-0-0-t-0-0-|
                                                        1st Verse

  E s e s s E s s s s s   E s s s s s E s e s s   E s e s s E s q
|-----r---------r-------|-----r-----------r-----|-----r-----------|
|-----e---------e-------|-----e-----------e-----|-----e-----------|
|-----s---------s-------|-----s-----------s-----|-----s---------7\|
|-0-0-t-0-0-0-0-t-0-3-0-|-3-3-t-3-0-0-0-0-t-0-0-|-0-0-t-0-0-0-0---|

  E s s s s s E s e s s   E s e s s E s s s s s   E s s s s s E s e s s
|-----r-----------r-----|-----r---------r-------|-----r-----------r-----|
|-----e-----------e-----|-----e---------e-------|-----e-----------e-----|
|-----s-----------s-----|-----s---------s-5-5-5-|-----s-----------s-----|
|-3-3-t-3-0-0-0-0-t-0-0-|-0-0-t-0-0-0-0-t-------|-3-3-t-3-0-0-0-0-t-0-0-|

  E s e s s E s s     e e s s e e e s s e   e e s s e e e s s e  2x
|-----r-----------||----------------------|----------------------||
|-----e-----------||*---------------------|---------------------*||
|-----s---------7\||*-0-0-0-0-0-----------|-0-0-0---0-1-1-1-0-1-*||
|-0-0-t-0-0-0-0---||------------3-3-3-1-3-|-------3--------------||
                     Pre-Chrous

 E s s s s s E s e s s    E s e s s E s s  s s   E s s s s s E s e s s
|-----r-----------r-----|-----r---------r-------|-----r-----------r-----|
|-----e-----------e-----|-----e---------e-------|-----e-----------e-----|
|-----s-----------s-----|-----s---------s-------|-----s-----------s-----|
|-3-3-t-3-0-0-0-0-t-0-0-|-0-0-t-0-0-0-0-t-0-3-0-|-3-3-t-3-0-0-0-0-t-0-0-|

  E s e s s E s q   s s s s s s s s s s s s s s s s
|-----r-----------|---------------------------------|
|-----e-----------|---------------------------------|
|-----s---------7\|-2-2-2-2-2-2-2-2-2-2-2-2-2-2-2-2-|
|-0-0-t-0-0-0-0---|---------------------------------|
                   Chrous

  s s s s s s s s s s s s s s s s   s s s s s s s s s s s s s s s s
|---------------------------------|---------------------------------|
|---------------------------------|---------------------------------|
|---------------------------------|---------------------------------|
|-5-5-5-5-5-5-5-5-5-5-5-5-5-5-5-5-|-3-3-3-3-3-3-3-3-3-3-3-3-3-3-3-3-|

   s s s s s s s s s s s s s s s s  s s s s s s s s s s s s s s s s
|---------------------------------|---------------------------------|
|---------------------------------|---------------------------------|
|---------------------------------|-2-2-2-2-2-2-2-2-2-2-2-2-2-2-2-2-|
|-5-5-5-5-5-5-5-5-5-5-5-5-5-5-5-5-|---------------------------------|

   s s s s s s s s s s s s s s s s  s s s s s s s s s s s s s s s s
|---------------------------------|---------------------------------|
|---------------------------------|---------------------------------|
|---------------------------------|---------------------------------|
|-5-5-5-5-5-5-5-5-5-5-5-5-5-5-5-5-|-3-3-3-3-3-3-3-3-3-3-3-3-3-3-3-3-|

  s s s s s s s s s s s s s s s s     E s s s s s E s e s s
|---------------------------------||------r-----------r-----|
|---------------------------------||*-----e-----------e-----|
|---------------------------------||*-----s-----------s-----|
|-5-5-5-5-5-5-5-3-5-3-5-5-5-3-5-3-||--3-3-t-3-0-0-0-0-t-0-0-|

  e s s e s s e s s s s s s 2x E s s s e q e e   q e e q s s s s
|---------------------------||-----r-------r---|---r-----r-------|
|--------------------------*||-----e-------e---|---e-----e-------|
|-7\----------7\-----------*||-----s-------s---|---s-----s-------|
|---0-0-0-0-0---0-0-0-0-3-0-||-3-3-t-3-0-0-t-0-|-0-t-0-0-t-0-3-0-|
                               2nd Verse

  E s s s e q e e   E s e e E s s s s s   E s s s e E s e e
|-----r-------r---|-----r-------r-------|-----r---------r---|
|-----e-------e---|-----e-------e-------|-----e---------e---|
|-----s-------s---|-----s-------s-------|-----s---------s---|
|-3-3-t-3-0-0-t-0-|-0-0-t-0-0-0-t-0-3-0-|-3-3-t-3-0-0-0-t-0-|

  E s e e E s s s s s   E s s s e q e e   q H     e e s s e e e s s e
|-----r-------r-------|-----r-------r---|---r-||----------------------|
|-----e-------e-------|-----e-------e---|---e-||*---------------------|
|-----s-------s-------|-----s-------s---|---s-||*-0-0-0-0-0-----------|
|-0-0-t-0-0-0-t-0-3-0-|-3-3-t-3-0-0-t-0-|-0-t-||------------3-3-3-1-3-|
                                                Pre Chorus

  e e s s e e e s s e  2x E s s s s s E s e s s    E s e s s E s s  s s
|----------------------||-----r-----------r-----|-----r---------r-------|
|---------------------*||-----e-----------e-----|-----e---------e-------|
|-0-0-0---0-1-1-1-0-1-*||-----s-----------s-----|-----s---------s-------|
|-------3--------------||-3-3-t-3-0-0-0-0-t-0-0-|-0-0-t-0-0-0-0-t-0-3-0-|

  E s s s s s E s e s s   E s e s s E s q   s s s s s s s s s s s s s s s s
|-----r-----------r-----|-----r-----------|---------------------------------|
|-----e-----------e-----|-----e-----------|---------------------------------|
|-----s-----------s-----|-----s---------7\|-2-2-2-2-2-2-2-2-2-2-2-2-2-2-2-2-|
|-3-3-t-3-0-0-0-0-t-0-0-|-0-0-t-0-0-0-0---|---------------------------------|
                                           Chorus

  s s s s s s s s s s s s s s s s   s s s s s s s s s s s s s s s s
|---------------------------------|---------------------------------|
|---------------------------------|---------------------------------|
|---------------------------------|---------------------------------|
|-5-5-5-5-5-5-5-5-5-5-5-5-5-5-5-5-|-3-3-3-3-3-3-3-3-3-3-3-3-3-3-3-3-|

   s s s s s s s s s s s s s s s s  s s s s s s s s s s s s s s s s
|---------------------------------|---------------------------------|
|---------------------------------|---------------------------------|
|---------------------------------|-2-2-2-2-2-2-2-2-2-2-2-2-2-2-2-2-|
|-5-5-5-5-5-5-5-5-5-5-5-5-5-5-5-5-|---------------------------------|

   s s s s s s s s s s s s s s s s  s s s s s s s s s s s s s s s s
|---------------------------------|---------------------------------|
|---------------------------------|---------------------------------|
|---------------------------------|---------------------------------|
|-5-5-5-5-5-5-5-5-5-5-5-5-5-5-5-5-|-3-3-3-3-3-3-3-3-3-3-3-3-3-3-3-3-|

  s s s s s s s s s s s s s s s s     E s s s s s E s e s s
|---------------------------------||------r-----------r-----|
|---------------------------------||*-----e-----------e-----|
|---------------------------------||*-----s-------7\--s-----|
|-5-5-5-5-5-5-5-3-5-3-5-5-5-3-5-3-||--3-3-t-3-0-0---0-t-0-0-|
                                    Repeat and Fade

    E s e s s E s s s s s
|-----r---------r--------||
|-----e---------e-------*||
|-----s---------s-------*||
|-0-0-t-0-0-0-0-t-0-3-0--||
            

comments powered by Disqus
↑ Back to top | Faith No More Bass for Last Cup Of Sorrow. Lyrics for acoustic guitar and electric guitar. Tablatures and chords are parodies/interpretations of the original songs. You may use it for private study, scholarship, research or language learning purposes only