» » »

Faith No More, Last Cup Of Sorrow Tabs (ver.1)

Artists:  A B C D E F G H I J K L M N O P Q R S T U V W X Y Z # 

Last Cup Of Sorrow Tabs (ver.1)

Faith No More Tabs
 Rating:
4/5 (4 votes)
Last Cup Of Sorrow lessons Tabs too difficult? Try these video lessons and learn fast
1
                Faith no more - Last cup of sorrow
Taken from the album "Album of the year"

Standard tuning (EADGBE)

Riff 1
E----------------------
B----------------------
G----------------------
D---5~--X--X---2~------
A---5~--X--X---2~------
E---3~--X--X---0~------

Riff 2
E----------------------------
B----------------------------
G--0-2-0--0-0-0-0-0-0--------
D----------------------------
A----------------------------
E----------------------------

Riff 3
E---0-------------0-------------0---------------
B---0-------------0-------------0---------------
G---8---Play------6---Play------3---Play--------
D---9---loads-----7---loads-----5---loads-------
A---9----of-------7----of-------5----of---------
E---7---times-----5---times-----3---times-------

Riff 4
E--------------------------------------------------------------------------------
B--------------------------------------------------------------------------------
G-------0-------0---------0-------0----------0----------0--------0---------0-----
D----2-------2--------2--------2----------2----------2--------2---------2--------
A--------------------------------------------------------------------------------
E--0-------0-------0---------0---------3----------3---------3--------3-----------

Song structure:

Riff 1 2X
Verse riff (no guitar) 3X
Riff 1 1X
Riff 2 4X
Riff 1 2X
Riff 3 2X
Riff 4 2X
Verse riff (no guitar) 4X
Riff 2 4X
Riff 1 2X
Riff 3 2X
Riff 1 4X
Riff 4 4X then keep playing as song fades out.

It's a pretty easy song to play - just make sure you palm mute on riff 1 between chords to give the heavier sound, and I think 
some of the open G notes on Riff 2 may be palm muted as well. Also, in the chorus riff (3), each chord is played a lot of times 
with some sweeping strums from the low notes to the higher ones. Riff 4 is often missed but it is the guitar playing the piano 
bit that you hear at the beginning of the song. It replaces Riff 1 in the middle fill and at the very end of the song.
            
Submit corrections

comments powered by Disqus
↑ Back to top | Faith No More Tabs for Last Cup Of Sorrow. Lyrics for acoustic guitar and electric guitar. 1 Tablatures and chords are parodies/interpretations of the original songs. You may use it for private study, scholarship, research or language learning purposes only