» » »

Faith No More, Last Cup Of Sorrow Tabs (ver.3)

Artists:  A B C D E F G H I J K L M N O P Q R S T U V W X Y Z # 

Last Cup Of Sorrow Tabs (ver.3)

Faith No More Tabs
Rating:
0/5 (0 votes)
Last Cup Of Sorrow lessons Tabs too difficult? Try these video lessons and learn fast
                Last Cup Of Sorrow by Faith No More
Tablature by Aaron Honsberger
Tuning: Double Drop D (dadgbd)
Legend: h = Hammer, b= Bend, x = Open Scratch

** Fairly simple song to learn and tab, but a good one to know **

Part A  (0:01 min/sec)

* Upstroke On The Second Chord *
-------------------------------|
-8-------6---------------------|
-7-------5---------------------|
-5-5-----3---------------------|   (X2)
-5-5-----3---------------------|
-5-5-x-x-3---------------------|

* (0:30 min/sec) Repeat Part A (X1) *

Part B (0:30 min/sec)

-------------------------------------|
-------------------------------------|
-------------------------------------|
-5h7h5-5b5b5b5b5b5b------------------|  (X4)
-------------------------------------|
-------------------------------------|

Part C (1:03 min/sec)

-------------------------------|
12----12--10--10--8-8--10-10---|
11-11------9-9----7-----9--9---|    (X2)
-9---------7------5-----7------|
-9---------7------5-----7------|
-9---------7------5-----7------|


Part D (1:27)
------------------------------------|
---5-----5--------------------------|
-----4-----4--4-----4---------------|    (X2)
-2-----2-----2--2--2--2-------------|
------------------------------------|
------------------------------------|


* (2:04 min/sec) Repeat Part B (X4) *

* (2:18 min/sec) Repeat Part A (X1) *

* (2:30 min/sec) Repeat Part C (X2) *

* (2:54 min/sec) Repeat Part A Until Songs End *

* (3:19 min/sec) Guitat #2 Repeat Part D Until Songs End *

   End Of Song
            

comments powered by Disqus
↑ Back to top | Faith No More Tabs for Last Cup Of Sorrow. Lyrics for acoustic guitar and electric guitar. Tablatures and chords are parodies/interpretations of the original songs. You may use it for private study, scholarship, research or language learning purposes only