>
 >
Nothing New 1

Nothing New 1 Bass Tabs

Face To Face - Nothing New 1 chords, tabs, tablatures, lyrics

Guitar lessons | Add/correct | Request | Top 50 tabs Artists:  A B C D E F G H I J K L M N O P Q R S T U V W X Y Z 0-9

Nothing New 1 Bass Tabs – Face To Face

CD, Sheet music, Poster

Do you like Nothing New 1? Share with your friends now
Bass TabsBass Tabs v2Tabs
intro
G:---------------------------------------------------------------  couple of times
D:---------------------------------------------------------------
A:--------------7>--------0>------------7>-------------------
E:--5>----------------------------------------------------------

    verse
G:---------------------------------------------------------------  x2
D:---------------------------------------------------------------
A:---------------------------------------------------------------
E:--3>-----------5>-------------------------------------------

repeat intro
repeat verse

    chorus  
G:---------------------------------------------------------------
D:---------------------------------------------------------------
A:--5>--------5>--------------2>----------------------------
E:--------3>--------5>--3>--------3>----------------------


G:---------------------------------------------------------------
D:---------------------------------------------------------------
A:-5>----------------5-4-5------------------------------------
E:-------5>--3-7-4--------------------------------------------
   you can make it
 
G:----------------------------------------------------------------
D:----------------------------------------------------------------
A:-----------------5-4-5--------------5-----------------5-----------------5
E:--5>---3-7-5----------5-5-5-5-----5-7-3-3-3-3---5-7-3-3-3-3----5-7-3-3-3-3

then repeat intro & verse





Comments


Popular Face To Face tabs & chords
Dont Turn Away Bass Tabs
In Harm's Way Bass Tabs
Resignation 1 Bass Tabs
You've Done Nothing 1 Bass Tabs
Blind Tabs
Blister In The Sun (Intro) Tabs
Disconnected 2 Tabs
No Authority Tabs
Sensible Tabs
You've Got A Problem Tabs


Song lyrics



↑ Back to top | Tablatures and chords are parodies/interpretations of the original songs. You may use it for private study, scholarship, research or language learning purposes only
© 2014 AZChords.com Contact us | Privacy policy | DMCA | Add/correct tabs | Request tabs | Top 50 tabs