» » »

Face To Face, Nothing New Tabs (ver.1)

Artists:  A B C D E F G H I J K L M N O P Q R S T U V W X Y Z # 

Nothing New Tabs (ver.1)

Face To Face Tabs
 Rating:
4/5 (4 votes)
Nothing New lessons Tabs too difficult? Try these video lessons and learn fast
                ----------------------------------------------------------------------------
----------------------------------------------------------------------------

Tuning:E

HERE ARE THE CHORDS, NOT THE STRUMMING

	INTRO

e|------------------------------------------|
B|------------------------------------------|  X2
G|---7----6----------7---6------------------|
D|-------------7----------------------------|
A|---5----4----------5---4------------------|
E|-------------5----------------------------|

	VERSE
e|-----------------------|
B|-----------------------|
G|-----------------------|
D|-----5-----7-----------|  X2
A|-----5-----7-----------|
E|-----3-----5-----------|

INTRO

VERSE

	CHORUS
e|---------------------------------------------------------------------------|
B|---------------------------------------------------------------------------|
G|---7-------7-----------4-------7-------------------------------------------|
D|---7---5---7---7---5---4---5---7---7---------------------------------------|
A|---5---5---5---7---5---2---5---5---7---------------------------------------|
E|-------3-------5---3-------3-------5---------------------------------------|

e|---------------------------------------------------------------------------|
B|---------------------------------------------------------------------------|
G|-------4-------7---6---7---------------------------------------------------|
D|---5---4---7---7---6---7----7----------------------------------------------|X2
A|---5---2---7---5---4---5----7----------------------------------------------|
E|---3-------5----------------5----------------------------------------------|

	PRE SOLO
e|--------------------------------------------------------------------------|
B|--------------------------------------------------------------------------|
G|---7----------------------------------------------------------------------|
D|---7---7---9---5---x3 then----5---9---7-----------------------------------|
A|---5---7---9---5--------------5---9---7-----------------------------------|
E|-------5---7---3--------------3---7---5-----------------------------------|

	SOLO
e|--------------------------------------------------|
B|--------------------------------------------------|
G|----7--6--7--9--11-12--11-9--7--6-----------------| X 2 HOLD LAST NOTE
D|-----------------------------------7--------------|      2ND TIME
A|----5--4--5--7--9--10--9--7--5--4-----------------|
E|-----------------------------------5--------------|

e|----------|
B|----------|
G|----------|
D|---5------|
A|---5------|
E|---3------|

CHOURS

ENDING
e|---------------------------------------------------------------------------|
B|---------------------------------------------------------------------------|
G|---7---6-------------------------------------------------------------------|X3
D|------------7--------------------------------------------------------------|
A|---5---4-------------------------------------------------------------------|
E|------------5--------------------------------------------------------------|


| /  slide up
| \  slide down
| h  hammer-on
| p  pull-off
| ~  vibrato
| +  harmonic
| x  Mute note
============================================================================

There is nothing new Put in front of you
Nothing you don't understand
Don't try to rationalize
No one hears your lies
Only you can comprehend
You don't want to see
You don't want to hear
You don't want to feel at all
Tell me that you've tried
Mind is open wide
But you're not listening at all
Please don't question me
I don't have the time
If there's a problem than it's easier to set aside
There is nothing that will make you want to change your mind
You can't take it
You can't make it You can't make it so why try?
            
Submit corrections

comments powered by Disqus
↑ Back to top | Face To Face Tabs for Nothing New. Lyrics for acoustic guitar and electric guitar. Tablatures and chords are parodies/interpretations of the original songs. You may use it for private study, scholarship, research or language learning purposes only