» » »

Face To Face, Disconnected Bass tabs (ver.1)

Artists:  A B C D E F G H I J K L M N O P Q R S T U V W X Y Z # 

Disconnected Bass tabs (ver.1)

Face To Face Tabs
 Rating:
4/5 (4 votes)
Disconnected lessons Tabs too difficult? Try these video lessons and learn fast
1
                Face to Face
Don't Turn Away



Intro Part 1

G|---------------------8---8---8---8----6--6---6--6---9-9-9-11-9-8-----------------|
D|-2-2-2-2--9-9-9-9--6---6---6---6----4---4--4--4------------------9-9-9-9-11-9-8--|
A|---------------------------------------------------------------------------------|
E|---------------------------------------------------------------------------------|

Intro Part 2


G|---------------------------------------------------|
D|---------------------------------------------------|
A|--7-7-7-7-7----------------------------------------|
E|-------------7-7-7-7-7--4-4-4-4-4--2-2-2-2-2-2-----|


Verse x5


G|--------------------------------------------------------|
D|--------------------------------------------------------|
A|--------------------------------------------------------|
E|-0-0-0-0-0-0-0-7-7-7-7-7-7-7-4-4-4-4-4-4-4-2-2-2-2-2-2--|



On the 6th time

G|-----------------------------------------------------------|
D|-----------------------------------------------------------|
A|------------------------------------2-2-2-2-2-2-2/9h11-9-8-|
E|-0-0-0-0-0-0-0-0-0-0-0-0-0-0-0-0-0-------------------------|


Chorus x4

G|---------------------------------------------------|
D|---------------------------------------------------|
A|--7-7-7-7-7----------------------------------------|
E|-------------7-7-7-7-7--4-4-4-4-4--2-2-2-2-2-2-----|



Solo x4
 The Rhythm for the last part is kind of tricky, don't give up if you don't get it right away.

G|-----------------------------------------------------------------------|
D|---9------9----9------9----13---------13-----13-----11-------8h9-------|
A|-7---7--7----9---9--9----11----11--11-----11-----11------9-------------|
E|-----------------------------------------------------------------------|

Then Chorus x6
            
Submit corrections

comments powered by Disqus
↑ Back to top | Face To Face Bass for Disconnected. Lyrics for acoustic guitar and electric guitar. 1 Tablatures and chords are parodies/interpretations of the original songs. You may use it for private study, scholarship, research or language learning purposes only