» » »

Faber Drive, You And I Tonight Tabs (ver.3)

Artists:  A B C D E F G H I J K L M N O P Q R S T U V W X Y Z # 

You And I Tonight Tabs (ver.3)

Faber Drive Tabs
Rating:
5/5 (1 vote)
You And I Tonight lessons Tabs too difficult? Try these video lessons and learn fast
                it's my first time tabbing a song. So if anything sounds wrong, my advance 

hello hello to my cousin "Cutie Limon" :D who loves this song more than I do ^_^

and i'm also looking forward to play this together with my kuya :)


Intro

e |----------------------------------------------------------|
B |-------1--------------1-------------1-------------1-------|
G |---0-----0---0----0-----0---0---3-----3---3---3-----3---3-|
D |-3---3-----3----2---2-----2---3---3-----3---3---3-----3---|
A |----------------------------------------------------------|
E |----------------------------------------------------------|




e |----------------------------------------------------------|
B |-------1--------------1-------------1-------------1-------|
G |---0-----0---0----0-----0---0---3-----3---3---3-----3---3-|
D |-3---3-----3----2---2-----2---3---3-----3---3---3-----3---|
A |----------------------------------------------------------|
E |----------------------------------------------------------|

tonight a candle lights the room
Tonight, its only me and you


e |--------------- | --------------- | ----------------------------|
B |-------1------- | -------1------- | ------1-------------1-------|
G |---0-----0---0- | ---0-----0---0- | --3-----3---3---3-----3---3-|
D |-3---3-----3--- | -2---2-----2--- | 3---3-----3---3---3-----3---|
A |--------------- | --------------- | ----------------------------|
E |--------------- | --------------- | ----------------------------|

    your skin   like  gravity it's pulling   part of me


e |--------------- | --------------- | ----------0------------|
B |-------1------- | -------1------- | ----------1------------|
G |---0-----0---0- | ---0-----0---0- | ----------3------------|
D |-3---3-----3--- | -2---2-----2--- | ----------3------------|
A |--------------- | --------------- | ----------0------------|
E |--------------- | --------------- | ----------0------------|

      i fall      you    and    i             collide (strum)



F

What if I stay forever?


C

What if there's no goodbye?

Dm         C               F* ( 1-1-3-3-1-1 )

Frozen for a moment here in time,


G* ( 3-3-5-5-3-3 )

Yeah!


F

If you tell me the sky is falling,


C

Or say that the the stars collide,


Dm                 C               F* ( 1-1-3-3-1-1 )

The only thing that matters in my life,


G* ( 3-3-5-5-3-3 )

Is you and I tonight
            

comments powered by Disqus
↑ Back to top | Faber Drive Tabs for You And I Tonight. Lyrics for acoustic guitar and electric guitar. Tablatures and chords are parodies/interpretations of the original songs. You may use it for private study, scholarship, research or language learning purposes only