» » »

Faber Drive, It Ends Tabs (ver.1)

Artists:  A B C D E F G H I J K L M N O P Q R S T U V W X Y Z # 

It Ends Tabs (ver.1)

Faber Drive Tabs
 Rating:
4/5 (10 votes)
It Ends lessons Tabs too difficult? Try these video lessons and learn fast
1
                |--------------------------------------------------------|
|------------------------Faber Drive---------------------|
|-------------------------It ends------------------------|
|--------------------------------------------------------|

Tuning: Standard

Hey everyone, this is my first tab but I'm pretty sure this version is correct
(I've updated it recently). The part where he does tab instead of chords might
not be exact though; If you figure it out, feel to send me the corrections!
(Play the part below the lyrics as you sing)

Intro
e|---------------|
b|---------------|
g|---------------|
d|---9-------9---|
a|--7-7-----7-7--|
E|-9-------5-----|

So clear silver moon, wind moves through my room, memories of Saturday.
(Memories of Saturday)
Slight turn of her head, eyes down when she said, she's going away.

Verse 1
e|------------------|
b|------------------|
g|------------------|x4
d|---9-------9------|
a|--7-7-----7-7-----|
E|-9-------5--------|

Going away... I need to know this.

Pre-Chorus
e|-x-|    |-x-|
b|-x-|    |-x-|
g|-x-|x8  |-x-|x8
d|-9-|    |-7-|
a|-9-|    |-7-|
E|-7-|    |-5-|

Am I the fool, am I a victim?
I'd rather know, you'd rather kiss him
goodnight, tonight. I'm blinded.
I try, I tried. Is this the way?
Is this the way it ends?

Chorus                 End on
e|-x-| |-x--| |-x-|    |-x----|
b|-x-| |-x--| |-x-|    |-x----|
g|-x-| |-x--| |-x-| x5 |-x----|
d|-9-| |-11-| |-7-|    |-5----|
a|-9-| |-11-| |-7-|    |-7----|
E|-7-| |-9--| |-5-|    |-7----|

Verse 2 Intro
e|---------------|
b|---------------|
g|---------------|
d|---9-------9---|
a|--7-7-----7-7--|
E|-9-------5-----|

Dark echoes inside, can't sleep through the night. All the words I heard you say
(Memories of Saturday)
fade over the yard. Made under the stars, stuck down in this place.

Verse 2
e|---------------------------------------------------|
b|---------9-------------9-----------9--12-10-9-10-9-|
g|------8/9-9---------8/9-8-------8/9-9--------------|x2
d|---9-------------9-----------9---------------------|
a|--7-7-----------7-7---------7-7--------------------|
E|-9-------------5-----------9-----------------------|

Pre-Chorus
Hands on my face... I need to know this.

Chorus
Am I the fool, am I a victim?
I'd rather know, you'd rather kiss him
goodnight, tonight. I'm blinded.
I tried, I tried. Is this the way?
Is this the way it ends?

Bridge                 End on
e|-x-| |-x--| |-x-|    |-x----|
b|-x-| |-x--| |-x-|    |-x----|
g|-x-| |-x--| |-x-| x5 |-x----|
d|-9-| |-11-| |-7-|    |-5----|
a|-9-| |-11-| |-7-|    |-7----|
E|-7-| |-9--| |-5-|    |-7----|

Get up, chase the vision. Stand up, watch the world go by, ah ah.
You found, feel the reason, black clouds are filling up my sky, ah ah, yeah.

Tab Chorus                  End on
e|---------------------|    |-x--|
b|---------------------|    |-x--|
g|---------------------| x2 |-x--|
d|-----9------11-----7-|    |-7--|
a|---9-----11------7---|    |-7--|
E|-7-----9-------5-----|    |-5--|

Am I the fool, am I a victim?
I'd rather know, you'd rather kiss him.

Chorus
Am I the fool, am I a victim?
I'd rather know, you'd rather kiss him
goodnight, tonight. I'm blinded.
I tried, I tried. Is this the way?
Is this the way it ends?
x2

Outro                  End On
e|----------------|    |-x-----|
b|----------------|    |-x-----|
g|----------------|    |-x-----|
d|-----9------11--|    |-7-----|
a|---9-----11-----|    |-7-----|
E|-7-----9--------|    |-5-----|
            
Submit corrections

comments powered by Disqus
↑ Back to top | Faber Drive Tabs for It Ends. Lyrics for acoustic guitar and electric guitar. 1 Tablatures and chords are parodies/interpretations of the original songs. You may use it for private study, scholarship, research or language learning purposes only