» » »

Faber Drive, You And I Tonight Tabs (ver.1)

Artists:  A B C D E F G H I J K L M N O P Q R S T U V W X Y Z # 

You And I Tonight Tabs (ver.1)

Faber Drive Tabs
Rating:
4/5 (5 votes)
You And I Tonight lessons Tabs too difficult? Try these video lessons and learn fast
                hey guyz.. You and I Tonight by Faber Drive.. Great Song.. Great artist \m/..

This song is for my girlfriend :)) i love her so much and I want to
sing this to her even though I have a bad voice :x
I love you so much babe! :)
-kiev21

*TUNING*
EADDBe
(THE TUNING IS HARD TO EXPLAIN..BUT FOR ME IT'S 98% SURE)

intro:

Lead:

e|----------------------------|
B|----------------------------|
D|----------------------------|
D|----5/7---5----2----3-------|
A|----------------------------|
E|----------------------------|

Rhythm:

e|------------------------------------------|
B|----------1--------------------1----------|
D|-----3-------3---3--------3-------2---2---|
D|---3---3-------3--------2---2-------3-----|
A|------------------------------------------|
E|------------------------------------------|
 
e|------------------------------------------|
E|------------1--------------------1--------|
D|-------3-------3---3--------3-------3---3-|
D|------------------------------------------|
A|-----1---1-------1--------1---1-------1---|
E|------------------------------------------| (2x)

Verse 1:

e|------------------------------------------|
B|----------1--------------------1----------|
D|-----3-------3---3--------3-------2---2---|
D|---3---3-------3--------2---2-------3-----|
A|------------------------------------------|
E|------------------------------------------|
 
e|------------------------------------------|
B|------------1--------------------1--------|
D|-------3-------3---3--------3-------3---3-|
D|------------------------------------------|
A|-----1---1-------1--------1---1-------1---|
E|------------------------------------------| (4x)


Tonight a candle lights the room,
Tonight it's only me and you,
Your skin, like gravity
Is pulling every part of me,
I fall, you and I collide

Chorus:

e|---------------------|
B|---------------------|
D|--10----5---7---3----|
D|--10----5---7---3----|
A|--8-----3---5---1----|
E|---------------------| (2x)

What if I stay forever?
What if there's no goodbye?
Frozen for a moment here in time,
Yeah,
If you tell me the sky is falling,
Or say that the stars collide,
The only thing that matters in my life,
Is you and I tonight 


Verse 2:

(same as verse 1)

Our eyes close the candle burns away,
But I know the fire still remains
This love is all we need
We fit together perfectly,
I fall, you and I collide 

*repeat chorus*

Bridge:

e|------------------------------------------|
B|-----6--5--1--6--5--1--6/8/6--6-1-5-------|
D|------------------------------------------|
D|------------------------------------------|
A|------------------------------------------|
E|------------------------------------------|

e|----13--12-----13--12------13/15/13--13--12--------|
B|-----------13----------13--------------------13----|
D|---------------------------------------------------|
D|---------------------------------------------------|
A|---------------------------------------------------|
E|---------------------------------------------------|

e|-------------------------------|
B|-----6--8--6-----6h8--6h8/10~--|
D|--------------1----------------|
D|-------------------------------|
A|-------------------------------|
E|-------------------------------|

I wanna see this through
I wanna give it all to you 

*repeat intro w/o the lead once*

e|------------------------------------------|
B|----------1--------------------1----------|
D|-----3-------3---3--------3-------2---2---|
D|---3---3-------3--------2---2-------3-----|
A|------------------------------------------|
E|------------------------------------------|
 
e|------------------------------------------|
B|------------1--------------------1--------|
D|-------3-------3---3--------3-------3---3-|
D|------------------------------------------|
A|-----1---1-------1--------1---1-------1---|
E|------------------------------------------| (2x)

Tonight a candle lights the room
Tonight, it's only me and you, oh 


e|---------------------|
B|---------------------|
D|--10----5---7---3----|
D|--10----5---7---3----|
A|--8-----3---5---1----|
E|---------------------| (4x)

What if I stay forever?
What if there's no goodbye?
Frozen for a moment here in time,
Yeah,
If you tell me the sky is falling,
Or say that the stars collide,
The only thing that matters in my life,
Is you and I tonight
Tell me the sky, forever
Just you and I tonight
Tell me the sky,
What if I stay?
Just you and I tonight


*end with intro*
            
Submit corrections

comments powered by Disqus
↑ Back to top | Faber Drive Tabs for You And I Tonight. Lyrics for acoustic guitar and electric guitar. Tablatures and chords are parodies/interpretations of the original songs. You may use it for private study, scholarship, research or language learning purposes only