>
 >
Play With Me 3

Play With Me 3 Guitar Tabs

Extreme - Play With Me 3 chords, tabs, tablatures, lyrics

Guitar lessons | Add/correct | Request | Top 50 tabs Artists:  A B C D E F G H I J K L M N O P Q R S T U V W X Y Z 0-9

Play With Me 3 Guitar Tabs – Extreme

CD, Sheet music, Poster

Do you like Play With Me 3? Share with your friends now
Bass TabsTabsTabs v2Tabs v3
i took this from the guy who already tabbed it, but he made a few major mistakes so i 
it up, no offence to the other guy i just noticed some of it was wrong

Solo part 1:

  ___________12___________ ___________12__________ ___________12________
--5-0-0-7-0-0-8-0-0-10-0-0-8-0-0-7-0-0-5-0-0-4-0-0-5-0-0-7-0-0-8-0-0-7--|
------------------------------------------------------------------------|
------------------------------------------------------------------------|
------------------------------------------------------------------------|
------------------------------------------------------------------------|
------------------------------------------------------------------------|
  ___ ___________12__________ ____________12__________ ____________12___
--0-0-5-0-0-4-0-0-5-0-0-7-0-0-8-0-0-10-0-0-8-0-0-7-0-0-10-0-0-8-0-0-7-0-|
------------------------------------------------------------------------|
------------------------------------------------------------------------|
------------------------------------------------------------------------|
------------------------------------------------------------------------|
------------------------------------------------------------------------|
___
0-4---------------------------------|
--------/10----------------9--10-\--|
------------9-9-9-10-9*db-----------|
------------------------------------|
------------------------------------|
------------------------------------|


Solo part 2:

 ___________12___________ __________12___________ __________12_______
--------------------------------------------------------5---5-9p5---5--|
--------6---6-9p6---6-----------6---6-9p6---7--------------------------|
-/9p7h9---9-------9---9p7-9p7h9---9-------9---9p7-9p6h9---9-------9----|
-----------------------------------------------------------------------|
-----------------------------------------------------------------------|
-----------------------------------------------------------------------|

 ___ _____________12______________ _____________12______________
-------------8----8-11p8----8--------------7----7-10p7----7------------|
-----------------------------------------------------------------------|
-9p6-11p8h11---11--------11---11p8-11p7h11---11--------11---11p7-------|
-----------------------------------------------------------------------|
-----------------------------------------------------------------------|
-----------------------------------------------------------------------|

 _____________12______________
---------7----7-11p7----7------|
-------------------------------|
-11p8h11---11--------11---11p8-|
-------------------------------|
-------------------------------|
-------------------------------|

each bend here uses a pinch harmonic and the bends are really jerky, and make a strong 
sound in between the bends. i'm not really sure what he did with the part after that so i 
it.

-----------------------------------------------------------------------|
-----------------------------------------6h9p6-------6h9p6-------6h9p6-|
---10BU---9BU---8BU---7BU---6BU----9p7h9-------9p7h9-------9p7h9-------|
-----------------------------------------------------------------------|
-----------------------------------------------------------------------|
-----------------------------------------------------------------------|

---------------------5h9p5-------5h9p5----------8h11p8---------8h11p8--|
--------6h9p6----------------------------------------------------------|
--9p7h9--------9p6h9-------9p6h9--------11p8h11--------11p8h11---------|
-----------------------------------------------------------------------|
-----------------------------------------------------------------------|
-----------------------------------------------------------------------|

-----------7h10p7---------7h10p7----------7-11p7---------7-11p7--------|
-----------------------------------------------------------------------|
---11p7h11--------11p7h11---------11-8h11--------11-8h11---------------|
-----------------------------------------------------------------------|
-----------------------------------------------------------------------|
-----------------------------------------------------------------------|

  ______________12______________ ______________12_____________
--------------12-16p12--------12h16/19-16--16--------------------------|
-----------------------------------------17--17--17--------------------|
---------13h16--------16p13h16-----------------16--16\13-16p13---------|
-------14--------------------------------------------------------------|
-----14----------------------------------------------------------------|
---12------------------------------------------------------------------|

  ____________12___________
--0-4p0----------------------------------|
--------0-5p0----------------------------|
-----------------------------------------|
--------------6-9p6---6------------------|
--------------------7---7----------------|
--------------------------x-0-dive-bomb--|





Comments


Popular Extreme tabs & chords
Decadence Dance 1 Bass Tabs
Ordinary Day Chords
Cupid's Dead 1 Tabs
More Then Words Tabs
Naked Tabs
Star Intro Tabs
Tragic Comic Tabs
Waiting For The Punchline Tabs
When I'm President 1 Tabs
Flow Ukulele


Song lyrics



↑ Back to top | Tablatures and chords are parodies/interpretations of the original songs. You may use it for private study, scholarship, research or language learning purposes only
© 2014 AZChords.com Contact us | Privacy policy | DMCA | Add/correct tabs | Request tabs | Top 50 tabs