» » »

Extreme, Rest In Peace Tabs (ver.1)

Artists:  A B C D E F G H I J K L M N O P Q R S T U V W X Y Z # 

Rest In Peace Tabs (ver.1)

Extreme Tabs
 Rating:
4/5 (4 votes)
Rest In Peace lessons Tabs too difficult? Try these video lessons and learn fast
1
                #This tab is the author's own work and represents their interpretation of the #
#song. You may only use this tab for private study, scholarship, or research. #


                            Rest in Peace (solo)


                                                   Extreme
(Bettencourt/Cherone)
Guitar Solo




D#||---------------------------------------10-|--9---9-----------------------|
A#||----------------------------------9-12----|--------10--10----12--12r-12r-|
F#||-----------------------------9/10---------|------------------------------|
C#||------------------------------------------|------------------------------|
G#||------------------------------------------|------------------------------|
D#||------------------------------------------|------------------------------|



-------------------------------10-|--9---9/12--12\4---5--7--7~-|
----12p10-12b-------------9-12----|----------------------------|
---------------------9-10---------|----------------------------|
------------------12--------------|----------------------------|
----------------------------------|----------------------------|
----------------------------------|----------------------------|



---9-5~--------------------10-|
----------------------9-12----|
-----------------9-10---------|
--------------12--------------|
------------------------------|
------------------------------|



--14--14p10-------15--15p10-------14--14p10-------15--15p10-------|
------------13p10-----------13p10-----------13p10-----------13p10-|



--13-10-------------------------------------------------------------------------
--------13-10-11-10----10-11-10----10-11-13-11-10----------------------------10-
--------------------13----------13----------------13-12-10----------10-10h12----
-----------------------------------------------------------12-10h12-------------



------------------------------|-----------------------------10-12-13/|
--13------------------13--12r-|----12-10-12------8-13-12-13----------|
------------------10----------|--------------------------------------|
--------------12--------------|--------------------------------------|
------------------------------|--------------------------------------|
----------10------------------|--------------------------------------|



--15~-------------15r-|------13--12----13--15--12r-|
----------------------|----------------------------|
----------------------|----------------------------|
----------------------|----------------------------|
----------------------|----------------------------|
----------------------|----------------------------|



---12-------------8--10--10r-|----10--8---------------------|
------13\-----10-------------|-----------9~---11--9-11-9-8--|
-----------------------------|------------------------------|
-----------------------------|------------------------------|
-----------------------------|------------------------------|
-----------------------------|------------------------------|



----10b-------8-10-12-13--15--15r-|------13-15\12----13--15--12b-|
----------------------------------|------------------------------|
----------------------------------|------------------------------|
----------------------------------|------------------------------|
----------------------------------|------------------------------|
----------------------------------|------------------------------|



---12------------------------|----------------------------------------------|
------13\---10~-10~-10~------|----------------------------------------------|
------------10~-10~-10~------|----------12-12-------------------------------|
-----------------------------|----12h14-------14-12----------------12-12----|
-----------------------------|----------------------14\12-10-12/14----------|
--------------------------0--|-------------------------------------------0--|



--------------------------------------------|
--------------------------------------------|
----------12-12-----------------------------|
----12h14-------14-12-----------------------|
----------------------14\12-10-12/14-10-----|
-----------------------------------------0--|



----------------------------------------------|
----------------------------------------------|
----------12-12-------------------------------|
----12h14-------14-12----------------12-12----|
----------------------14\12-10-12/14----------|
-------------------------------------------0--|



------------------------------------12\-|
----------------------------------------|
----------12-12-------14-16-12--x-x-12\-|
----12h14-------14-12-------------------|
----------------------------------------|
----------------------------------------|



----------------------------------------------|
----------------------------------------------|
----------12-12-------------------------------|
----12h14-------14-12----------------12-12----|
----------------------14\12-10-12/14----------|
-------------------------------------------0--|



--------------------------------------------|
--------------------------------------------|
----------12-12-----------------------------|
----12h14-------14-12-----------------------|
----------------------14\12-10-12/14-10-----|
-----------------------------------------0--|



-------------------------------------------|----------------------------------||
-------------------------------------------|----------------------------------||
-------------------------------------------|------------------------12--------||
--12h14--12-------12-----------------------|--12h14--12-------12--------------||
------------12h14-----10--10--10-12-10-----|------------12h14----14-----------||
---------------------------------------12--|----------------------------------||
            
Submit corrections

comments powered by Disqus
↑ Back to top | Extreme Tabs for Rest In Peace. Lyrics for acoustic guitar and electric guitar. 1 Tablatures and chords are parodies/interpretations of the original songs. You may use it for private study, scholarship, research or language learning purposes only