>
 >
Hole Hearted

Hole Hearted Guitar Tabs

Extreme - Hole Hearted chords, tabs, tablatures, lyrics

Guitar lessons | Add/correct | Request | Top 50 tabs Artists:  A B C D E F G H I J K L M N O P Q R S T U V W X Y Z 0-9

Hole Hearted Guitar Tabs – Extreme

CD, Sheet music, Poster

Do you like Hole Hearted? Share with your friends now
Bass TabsChordsTabsTabs v2Tabs v3Ukulele
Alright, this is my first tab, but I think it's pretty accurate.

Intro
e|--2--2--4--------2--2--4-----4-----------2--2--4--|
B|--3--3--5--------3--3--5--------5--------3--3--5--|
G|--2--2--4--------2--2--4-----------4-----2--2--4--|
D|--0--0--0--------0--0--0-----------------0--0--0--|
A|--------------------------------------------------|
E|--------------------------------------------------|

e|--4--4--4--4--4--4--4--4--2--2-----2--4--5----------------------------|
B|--5--5--5--5--5--5--5--5--3--3-----3--5--6---(repeat the 5650 w/ the--|
G|--4--4--4--4--4--4--4--4--2--2-----2--4--5----same rhythym, but play--|
D|--0--0--0--0--0--0--0--0--0--0-----0--0--0---------it 13 times)-------|
A|----------------------------------------------------------------------|
E|----------------------------------------------------------------------|

e|------------------------------------------|
B|------------------------------------------|
G|-----------------------------2--2--0------|
D|--5h7---7----7-7--7p5p0------2--2--0------|
A|--0---0-0----0-0--------3----0--0--0------|
E|------------------------------------------|

e|------------------------------------------|
B|------------------------------------------|
G|--5h6----7---5h6-----5--7---5h6----0------|
D|--5----7-7---5----0--5--7---5----7-0------|
A|--0----0-0---0----7-----0---0----0--------|
E|------------------------------------------|

e|----------------------------2--2--2-------|
B|----------------------------3--3--3-------|
G|----------------------------2--2--2-------|
D|--5h7---7----7-7--7p5p0-----0--0--0-------|
A|--0---0-0----0-0--------3-----------------|
E|------------------------------------------|

e|------------------------------------------|
B|------------------------------------------|
G|------0------------------2--2--0----------|
D|------------0------------2--2--0----------|
A|--5h7---3h5---2h3-3p2----0--0--0----------|
E|----------------------3-------------------|

e|------------------------------------------|
B|------------------------------------------|
G|-----------------------------2--2--0------|
D|--5h7---7----7-7--7p5p0------2--2--0------|
A|--0---0-0----0-0--------3----0--0--0------|
E|------------------------------------------|

e|------------------------------------------|
B|------------------------------------------|
G|--5h6----7---5h6-----5--7---5h6----0------|
D|--5----7-7---5----0--5--7---5----7-0------|
A|--0----0-0---0----7-----0---0----0--------|
E|------------------------------------------|

e|----------------------------2--2--2-------|
B|----------------------------3--3--3-------|
G|----------------------------2--2--2-------|
D|--5h7---7----7-7--7p5p0-----0--0--0-------|
A|--0---0-0----0-0--------3-----------------|
E|------------------------------------------|

e|------------------------------------------|
B|------------------------------------------|
G|------0------------------2--2--0----------|
D|------------0------------2--2--0----------|
A|--5h7---3h5---2h3-3p2----0--0--0----------|
E|----------------------3-------------------|

Verse
e|------------------------------------------|
B|------------------------------------------|
G|-----------------------------2--2--0------|
D|--5h7---7----7-7--7p5p0------2--2--0------|
A|--0---0-0----0-0--------3----0--0--0------|
E|------------------------------------------|

e|------------------------------------------|
B|------------------------------------------|
G|--5h6----7---5h6-----5--7---5h6----0------|
D|--5----7-7---5----0--5--7---5----7-0------|
A|--0----0-0---0----7-----0---0----0--------|
E|------------------------------------------|

e|----------------------------2--2--2-------|
B|----------------------------3--3--3-------|
G|----------------------------2--2--2-------|
D|--5h7---7----7-7--7p5p0-----0--0--0-------|
A|--0---0-0----0-0--------3-----------------|
E|------------------------------------------|

e|------------------------------------------|
B|------------------------------------------|
G|------0------------------2--2--0----------|
D|------------0------------2--2--0----------|
A|--5h7---3h5---2h3-3p2----0--0--0----------|
E|----------------------3-------------------|

e|------------------------------------------|
B|------------------------------------------|
G|-----------------------------2--2--0------|
D|--5h7---7----7-7--7p5p0------2--2--0------|
A|--0---0-0----0-0--------3----0--0--0------|
E|------------------------------------------|

e|------------------------------------------|
B|------------------------------------------|
G|--5h6----7---5h6-----5--7---5h6----0------|
D|--5----7-7---5----0--5--7---5----7-0------|
A|--0----0-0---0----7-----0---0----0--------|
E|------------------------------------------|

e|----------------------------2--2--2-------|
B|----------------------------3--3--3-------|
G|----------------------------2--2--2-------|
D|--5h7---7----7-7--7p5p0-----0--0--0-------|
A|--0---0-0----0-0--------3-----------------|
E|------------------------------------------|

e|------------------------------------------|
B|------------------------------------------|
G|------0------------------2--2--0----------|
D|------------0------------2--2--0----------|
A|--5h7---3h5---2h3-3p2----0--0--0----------|
E|----------------------3-------------------|

Pre-Chorus (the open D's in this part are optional)
e|--2--2-----9---9---9---9---------7--7--7-----5-----2----2--2--2--2--|
B|--3--3-----10--10--10--10--------8--8--8-----6-----3----3--3--3--3--|
G|--2--2-----9---9---9---9---------7--7--7-----5-----2----2--2--2--2--|
D|--0--0--0--0---0---0---0---0--0--0--0--0--0--0--0--0----0--0--0--0--|
A|--------------------------------------------------------------------|
E|--------------------------------------------------------------------|

e|-----------------------------------------------------------|
B|--2--2-----3--3--3--3-----5--5--5-----3-----2--2--2--2--2--|
G|--0--0-----0--0--0--0-----0--0--0-----0-----0--0--0--0--0--|
D|--2--2-----4--4--4--4-----5--5--5-----4-----2--2--2--2--2--|
A|--0--0--0--0--0--0--0--0--0--0--0--0--0--0--0--0--0--0--0--|
E|-----------------------------------------------------------|

e|--2--2-----9---9---9---9---------7--7--7-----5-----2----2--2--2--2--|
B|--3--3-----10--10--10--10--------8--8--8-----6-----3----3--3--3--3--|
G|--2--2-----9---9---9---9---------7--7--7-----5-----2----2--2--2--2--|
D|--0--0--0--0---0---0---0---0--0--0--0--0--0--0--0--0----0--0--0--0--|
A|--------------------------------------------------------------------|
E|--------------------------------------------------------------------|

e|-----------------------------------------------------------|
B|--2--2-----3--3--3--3-----5--5--5-----3-----2--2--2--2--2--|
G|--0--0-----0--0--0--0-----0--0--0-----0-----0--0--0--0--0--|
D|--2--2-----4--4--4--4-----5--5--5-----4-----2--2--2--2--2--|
A|--0--0--0--0--0--0--0--0--0--0--0--0--0--0--0--0--0--0--0--|
E|-----------------------------------------------------------|

Chorus (again, those open D's are optional)
e|--3--3--3--3--3--3--3--3----3--3--3--3--3--3--3--3---------|
B|--3--3--3--3--3--3--3--3----3--3--3--3--3--3--3--3---------|
G|--0--0--0--0--0--0--0--0----0--0--0--0--0--0--0--0---------|
D|--0--0--0--0--0--0--0--2----2--2--2--2--2--2--2--2---------|
A|--2--2--2--2--2--0--2--3----3--3--3--3--3--3--3--3---------|
E|--3--3--3--3--3--------------------------------------------|

e|--2--2--------4--4--4--4--------2--2--2-----2-----2s4------4-----4-------|
B|--3--3--------5--5--5--5--------3--3--3-----3-----3s5------5-----5-------|
G|--2--2--------4--4--4--4--------2--2--2-----2-----2s4------4-----4-------|
D|--0--0--0--0--0--0--0--0--0--0--0--0--0--0--0--0--0-----0--0--0--0--0--0-|
A|-------------------------------------------------------------------------|
E|-------------------------------------------------------------------------|

e|--3--3--3--3--3--3--3--3----3--3--3--3--3--3--3--3---------|
B|--3--3--3--3--3--3--3--3----3--3--3--3--3--3--3--3---------|
G|--0--0--0--0--0--0--0--0----0--0--0--0--0--0--0--0---------|
D|--0--0--0--0--0--0--0--2----2--2--2--2--2--2--2--2---------|
A|--2--2--2--2--2--0--2--3----3--3--3--3--3--3--3--3---------|
E|--3--3--3--3--3--------------------------------------------|

e|--2--2-----4-----4----------------------------------------------|
B|--3--3-----5-----5-----------------3-----------------3----------|
G|--2--2-----4-----4--------------0-----0-----0-----0-------------|
D|--0--0--0--0--0--0--0--0-----3-----------3-----2--------2p0-----|
A|-------------------------------------------------------------3--|
E|----------------------------------------------------------------|

Interlude
e|------------------------------------------|
B|------------------------------------------|
G|-----------------------------2--2--0------|
D|--5h7---7----7-7--7p5p0------2--2--0------|
A|--0---0-0----0-0--------3----0--0--0------|
E|------------------------------------------|

e|------------------------------------------|
B|------------------------------------------|
G|--5h6----7---5h6-----5--7---5h6----0------|
D|--5----7-7---5----0--5--7---5----7-0------|
A|--0----0-0---0----7-----0---0----0--------|
E|------------------------------------------|

e|----------------------------2--2--2-------|
B|----------------------------3--3--3-------|
G|----------------------------2--2--2-------|
D|--5h7---7----7-7--7p5p0-----0--0--0-------|
A|--0---0-0----0-0--------3-----------------|
E|------------------------------------------|

e|------------------------------------------|
B|------------------------------------------|
G|------0------------------2--2--0----------|
D|------------0------------2--2--0----------|
A|--5h7---3h5---2h3-3p2----0--0--0----------|
E|----------------------3-------------------|

Outro
e|--2--2-----4-----4----------------------------------------------|
B|--3--3-----5-----5-----------------3-----------------3----------|
G|--2--2-----4-----4--------------0-----0-----0-----0-------------|
D|--0--0--0--0--0--0--0--0-----3-----------3-----2--------2p0-----|
A|-------------------------------------------------------------3--|
E|----------------------------------------------------------------|

The order is:
Intro x1
Verse x1
Pre-Chorus x1
Chorus x1
Interlude x1
Verse x1
Pre-Chorus x1
Chorus x1
Outro x3





Comments


Popular Extreme tabs & chords
It Bass Tabs
More Than Words Bass Tabs
Interface 1 Chords
Cupid's Dead Tabs
Cupid's Dead 1 Tabs
More Than Words 3 Tabs
Play With Me 3 Tabs
Pornograffitti Tabs
Queen Medley Tabs
Hole Hearted Ukulele


Song lyrics



↑ Back to top | Tablatures and chords are parodies/interpretations of the original songs. You may use it for private study, scholarship, research or language learning purposes only
© 2014 AZChords.com Contact us | Privacy policy | DMCA | Add/correct tabs | Request tabs | Top 50 tabs