» » »

Get The Funk Out Bass tabs (ver.1)

Artists:  A B C D E F G H I J K L M N O P Q R S T U V W X Y Z # 

Get The Funk Out Bass tabs (ver.1)

Extreme
Rating:
3/5 (4 votes)

Hard to play? Try these video lessons and learn fast.
                Get the Funk out (Bass)
Extreme - Pornograffitti


There are no Extreme Bass tabs on the net except this one. I know most 
Extreme songs
on bass, so i'll be tabbing out more soon. If you want a certain song 
don't hesitate to e-mail me and i'll do it.





After the Drum Fill, Pat Badger plays this cool, but easy riff.

Tuned 1/2 a step down
								    _____________________
Main Riff                                                         |1.	     
Main riff end
G|---------------------|---------------------|---------------------|---------------------|
D|:-----2--------------|-----2---------------|-----2---------------|-----2--------------:|
A|:3-1----------------1|3-1---------------012|3-1-----------------1|3-1--------------012:|
E|-------0-1-2-3-------|--------0-1-2-3------|-------0-1-2-3-------|--------0-1-2-3------|
  _____________________
|2.
G|-----2-3-4-----------|
D|-----------0h3-5--3--|
A|3-1------------------|
E|---------------------|

Pat Bagder then plays this riff without the fill, thoughout the verses.

Pre-chorus 							    Sub. Fill 1 + 2 (solo)
G|---------------------|---------------------|---------------------|---------------------|
D|---------------------|---------------------|----545-6-6-7-8------|-----8-7-8-9-10-10\--|
A|----545-6-6-7-8------|----767-8-8-9-10-----|6-6------------------|8-8------------------|
E|6-6------------------|8-8------------------|---------------------|---------------------|

Chorus
G|---------------------|---------------------|----------5-----5--------5|------------------|
D|---------------------|---------------------|--------------------------|---8--8-7--5------|
A|--------1-2--1-2-----|------1-2--1-2-------|3-3-33-5/7-7--6h7-8--6h7--|--------------6h7-|
E|--3-3--3----3---3--12|3-3--3----3----3-----|--------------------------|------------------|

He then plays the main riff once with the fill and then goes to the 
beginning again.

The next time it gets to the chorus, you play that 4 1/2 times, then this 
pre-solo riff.

Pre solo
G|--5-3-------3--------|---------------------|-------------------------|
D|------5-3-----5-3----|-5-3------3----------|-------------------------|
A|------------------5--|-----5-4----5-4-3----|-5-4-3--5-4-3-1-1-3-1----|
E|---------------------|---------------------|----------------------1-2|

Bass part             x2
G|---------------3-4-5-|---------------------|-------------------------|
D|-----1-2-3-4-5-------|---------------3-4-5-|-------------------------|
A|-1-3-----------------|-----1-2-3-4-5-------|-----1-2-3-4--3-1-3-1----|
E|---------------------|-1-3-----------------|-1-3------------------3-1| 
Repeat all


                fast picked
Bass Fill 1                          Bass Fill 2
G|---------------10-11-12|          |--------------------|
D|---8-7-8-9-10----------|          |--------------------|
A|-8---------------------|          |-8--7--5-3-2--------|
E|-----------------------|          |-------------5-4----|


Riff Order

Main riff (intro) x2  (Verse) x3
Pre chorus x1
Chorus x2
Main riff x1 (last 2bars inc. fill)
Main riff (verse) x3
Pre chorus x1
Chorus x4 1/2
Pre solo x1
Bass part x2

(Guitar Solo) Pre chorus x2 (sub fill 1 1st time)
                            (sub fill 2 2nd time)
(Outro)
Chorus x 3 1/2
Pre solo x1
Chrous x 3 1/2
Pre solo x1
Bass part (first bar)

End on G on the E-String
            
Hard to play? Try these video lessons and learn fast. | Correct




comments powered by Disqus
↑ Back to top | Tablatures and chords are parodies/interpretations of the original songs. You may use it for private study, scholarship, research or language learning purposes only