» » »

Exploited, Army Life Tabs (ver.3)

Artists:  A B C D E F G H I J K L M N O P Q R S T U V W X Y Z # 

Army Life Tabs (ver.3)

Exploited Tabs
 Rating:
4/5 (4 votes)
Army Life lessons Tabs too difficult? Try these video lessons and learn fast
1
                (Intro)
ARMY LIFE - THE EXPLOITED


THIS IS THE INTRO PART FOR WHEN THEY SING "YOU NEVER GIVE UP, YOU NEVER GIVE UP, YOU
GIVE UP IN THE ARMY!"...THE OTHER VERSION OF THE SONG DOESNT HAVE THIS, ITS REPLACED BY
SOLDIERS AND GUNFIRE!

I WATCHED "SEXUAL FAVOURS" AND WATCHED THEM PLAY IT [thats how i figured it out]...THIS
100% CORRECT...FOR THE "SEXUAL FAVOURS" DVD AT LEAST

INTRO:
play this twice alone
then twice with vocals/drums
then twice alone again
all together it equals "six"

e|--------------------------------------------|
B|--------------------------------------------|
G|-----6-9p6-6---6-9p6-6---6-9p6-6----6-------|x6
D|---7---------7---------7---------7----7-----|
A|--------------------------------------------|
E|--------------------------------------------|

ILL ADD THIS TOO, COS ITS PRETTY SIMPLE [THE BASS DOESNT JUST PLAY STRAIGHT "B" NOTES!
YOU HAVE THE VERSION WITH THE GUNFIRE AND MARCHING, ITS A LOT EASIER TO HEAR THE BASS LINE!

BASS VERSE:
G|---------------------------------|
D|---------------------------1-----|
A|--2/3-3-3-2/3-3-3-2/3-3-3----1---|
E|---------------------------------|
            
Submit corrections

comments powered by Disqus
↑ Back to top | Exploited Tabs for Army Life. Lyrics for acoustic guitar and electric guitar. 1 Tablatures and chords are parodies/interpretations of the original songs. You may use it for private study, scholarship, research or language learning purposes only