» » »

Exploited, Army Life Bass tabs (ver.2)

Artists:  A B C D E F G H I J K L M N O P Q R S T U V W X Y Z # 

Army Life Bass tabs (ver.2)

Exploited Tabs
Rating:
0/5 (0 votes)
Hard to play? Try these video lessons and learn fast.
                The Exploited 

g-------------------|
d-------------------|x 8
a------------3-3----|
e5-535-535-5----3---|

verse

g--------------------------------|
d--------------------------------|
a-----------33333333-------------|
e11111111-----------5-5-5--5-5-5-|

g--------------------------------|
d--------------------------------|
a-----------33333333-------------|
e11111111------------5-----------|

g-------------------|
d-------------------|x8
a------------3-3----|
e5-535-535-5----3---|

verse

g--------------------------------|
d--------------------------------|
a-----------33333333-------------|
e11111111-----------5-5-5--5-5-5-|

g--------------------------------|
d--------------------------------|
a-----------33333333-------------|
e11111111------------5-----------|

g-------------------|
d-------------------|x4
a------------3-3----|
e5-535-535-5----3---|

verse

g--------------------------------|
d--------------------------------|
a-----------33333333-------------|
e11111111-----------5-5-5--5-5-5-|

g--------------------------------|
d--------------------------------|
a-----------33333333-------------|
e11111111------------5-----------|

g-------------------|
d-------------------|x8
a------------3-3----|
e5-535-535-5----3---|

verse

g--------------------------------|
d--------------------------------|
a-----------33333333-------------|
e11111111-----------5-5-5--5-5-5-|

g--------------------------------|
d--------------------------------|
a-----------33333333-------------|
e11111111------------5-----------|

g-------------------|
d-------------------|x8
a------------3-3----|
e5-535-535-5----3---|

verse

g--------------------------------|
d--------------------------------|
a-----------33333333-------------|
e11111111-----------5-5-5--5-5-5-|

g--------------------------------|
d--------------------------------|
a-----------33333333-------------|
e11111111------------5-----------|
            

comments powered by Disqus
↑ Back to top | Exploited Bass for Army Life. Lyrics for acoustic guitar and electric guitar. Tablatures and chords are parodies/interpretations of the original songs. You may use it for private study, scholarship, research or language learning purposes only