» » »

Army Life Tabs (ver.2)

Artists:  A B C D E F G H I J K L M N O P Q R S T U V W X Y Z # 

Army Life Tabs (ver.2)

Exploited
Rating:
0/5 (0 votes)

Hard to play? Try these video lessons and learn fast.
                These are just the chords
listen to the song for the pattern
it’s an easy song to play and a cool
to listen to


Verse:
   C       D#
|------| |------|
|------| |--8---|
|--5---| |--8---|
|--5---| |--6---|
|--3---| |------|


Chorus:
  G#       D#       C#
|------| |------| |------|
|------| |------| |------|
|------| |--8---| |--6---|
|--6---| |--8---| |--6---|
|--6---| |--6---| |--4---|
|--4---| |------| |------|
And that’s pretty much it, play
it with some distortion
            
Hard to play? Try these video lessons and learn fast. | Correct




comments powered by Disqus
↑ Back to top | Tablatures and chords are parodies/interpretations of the original songs. You may use it for private study, scholarship, research or language learning purposes only