» » »

Everything Everything, Suffragette Suffragette Tabs (ver.2)

Artists:  A B C D E F G H I J K L M N O P Q R S T U V W X Y Z # 

Suffragette Suffragette Tabs (ver.2)

Everything Everything Tabs
 Rating:
4/5 (7 votes)
Suffragette Suffragette lessons Tabs too difficult? Try these video lessons and learn fast
1
                -------------------------------------------------------------------------------
                             Suffragette Suffragette - Everything Everything
-------------------------------------------------------------------------------

Tuning: Drop D

Intro/verse

e|--------------------------------------------------------------------------|
B|--------------------------------------------------------------------------|
G|---------------------6-6-6-6------------------------------------------ |x12
D|-7-7-7-7-7-7-4-4-4-4------------------------------------------------------|
A|--------------------------------------------------------------------------|
D|--------------------------------------------------------------------------|

e|-------------------------------5-5-5-5-4-4-4-4-4-4h5-4--------------------|
B|---5-7-----5-7---5-7-----------------------------------7-5----------------|
G|-6-----6-6-----6-----6-6-6-6-6------------------------------------------x2|
D|--------------------------------------------------------------------------|
A|--------------------------------------------------------------------------|
D|--------------------------------------------------------------------------|

Chorus

e|-5-5-5-5-5-5-5-4-4-4\2-2-5-5-5-5-5-5-5-7-7-5-4-2---------------------------
B|---------------------------------------------------------------------------
G|---------------------------------------------------------------------------
D|---------------------------------------------------------------------------
A|---------------------------------------------------------------------------
D|---------------------------------------------------------------------------

Main Riff

e|---------------------------------------------------------------------------
B|---------------------------------------------------------------------------
G|-------------------------------------------------------------------------x4
D|---------------------------------7h9p7-------------------------------------
A|---------------------------------------9-----------------------------------
D|-12\3-3-5-3-3-3h5-3h5/8-7-7-7/10-------------------------------------------

Verse 2

e|--------------------------------------------------------------------------|
B|--------------------------------------------------------------------------|
G|---------------------6-6-6-6------------------------------------------ |x10
D|-7-7-7-7-7-7-4-4-4-4------------------------------------------------------|
A|--------------------------------------------------------------------------|
D|--------------------------------------------------------------------------|

e|-------------------------------5-5-5-5-4-4-4-4-4-4h5-4-------4------------|
B|---5-7-----5-7---5-7-----------------------------------7-5-7---7-5--------|
G|-6-----6-6-----6-----6-6-6-6-6------------------------------------------x2|
D|--------------------------------------------------------------------------|
A|--------------------------------------------------------------------------|
D|--------------------------------------------------------------------------|

Chorus

e|-5-5-5-5-5-5-5-4-4-4\2-2-5-5-5-5-5-5-5-7-7-5-4-2---------------------------
B|---------------------------------------------------------------------------
G|---------------------------------------------------------------------------
D|---------------------------------------------------------------------------
A|---------------------------------------------------------------------------
D|---------------------------------------------------------------------------

Main Riff

e|---------------------------------------------------------------------------
B|---------------------------------------------------------------------------
G|-------------------------------------------------------------------------x4
D|---------------------------------7h9p7-------------------------------------
A|---------------------------------------9-----------------------------------
D|-12\3-3-5-3-3-3h5-3h5/8-7-7-7/10-------------------------------------------

Chorus

e|-5-5-5-5-5-5-5-4-4-4\2-2-5-5-5-5-5-5-5-7-7-5-4-2---------------------------
B|---------------------------------------------------------------------------
G|-------------------------------------------------------------------------x2
D|---------------------------------------------------------------------------
A|---------------------------------------------------------------------------
D|---------------------------------------------------------------------------

Bridge

e|--------------------------------------------------------------------------|
B|--------------------------------------------------------------------------|
G|---------------------6-6-6-6------------------------------------------ |x4
D|-7-7-7-7-7-7-4-4-4-4------------------------------------------------------|
A|--------------------------------------------------------------------------|
D|--------------------------------------------------------------------------|

e|-------------------------------5-5-5-5-4-4-4-4-4-4h5-4--------------------|
B|---5-7-----5-7---5-7-----------------------------------7-5----------------|
G|-6-----6-6-----6-----6-6-6-6-6------------------------------------------x2|
D|--------------------------------------------------------------------------|
A|--------------------------------------------------------------------------|
D|--------------------------------------------------------------------------|

Outro

e|--------------------------------------------------------------------------|
B|-/12-10-10-9--------------------------------------------------------------|
G|------------------------------------------------------------------------x4|
D|--------------------------------------------------------------------------|
A|--------------------------------------------------------------------------|
D|--------------------------------------------------------------------------|

************************************

| /   slide up
| \   slide down
| h   hammer-on
| p   pull-off
| ~   vibrato
| +   harmonic
| x   Mute note
| b   Bend
| pb  Pre-bend
| br  Bend release
| pbr Pre-bend release
| brb Bend release bend

************************************
            
Submit corrections

comments powered by Disqus
↑ Back to top | Everything Everything Tabs for Suffragette Suffragette. Lyrics for acoustic guitar and electric guitar. 1 Tablatures and chords are parodies/interpretations of the original songs. You may use it for private study, scholarship, research or language learning purposes only