» » »

It Might Be You Tabs (ver.2)

Artists:  A B C D E F G H I J K L M N O P Q R S T U V W X Y Z # 

It Might Be You Tabs (ver.2)

Erik Santos
Rating:
0/5 (0 votes)

Hard to play? Try these video lessons and learn fast.
                (Intro)


e-3-----------------------------2h3p2-2---------------|
B-3-3-------3-3-------3-3------3----------------0h1-3-|
G-0--0-----4---4-----5---5----2-------------0h2-------|
D-0---0---4-----4---5-----5--0----------0h2-----------|
A-2----2-2-------2-3-------3--------------------------|
E-3---------------------------------------------------|


-0-3-5-2-3----7-10/12\10-10-8p7-8p7-7p5-7p5-5p3-5p3-2-|
-----------3-8----------------------------------------|
------------------------------------------------------|
------------------------------------------------------|
------------------------------------------------------|
------------------------------------------------------|


-3------------------------------|
-3---2-2---2-2---2-2-5----------|
-0--0-----0-----0-----5-4-2-0-0-|
-0-4-----4-----4----------------|
-2------------------------------|
-3------------------------------|

end of intro

sowy if its not acurate its my first tab
            
Hard to play? Try these video lessons and learn fast. | Correct




comments powered by Disqus
↑ Back to top | Tablatures and chords are parodies/interpretations of the original songs. You may use it for private study, scholarship, research or language learning purposes only