» » »

Erik Santos, It Might Be You Tabs (ver.1)

Artists:  A B C D E F G H I J K L M N O P Q R S T U V W X Y Z # 

It Might Be You Tabs (ver.1)

Erik Santos Tabs
 Rating:
4/5 (4 votes)
It Might Be You lessons Tabs too difficult? Try these video lessons and learn fast
                ----------------------------------------------------------------------------
----------------------------------------------------------------------------



        This is actually a good song. Suited for those who are inlove. Nice in the ear 
very pleasant to hear. If you get this plucking correctly, youre great!..hehe.. This is 
a nice song. I translated this directly from the piano so I'm sure this is 100% accurate.

Tuning: Standard Tuning EADGBe

Intro:

         G                G                 G                  G
e|-----3---5---7-3-|-----3---5---7-3-|-----3---5---7-3-|--3--3--0--------|
B|---3-------------|---3-------------|---3-------------|-----------3-----|
G|-------0---0-----|-------0---0-----|-------0---0-----|-----------------|
D|-----------------|-----------------|-0---------------|-----------------|
A|-----------------|-2---------------|-----------------|-----------------|
E|-3---------------|-----------------|-----------------|-----------------|

         G                G                 G                  G
e|-----3---5---7-3-|-----3---5---7-3-|-----3---5---7-3-|--3--3--0--3-----|
B|---3-------------|---3-------------|---3-------------|-----------------|
G|-------0---0-----|-------0---0-----|-------0---0-----|-----------------|
D|-----------------|-----------------|-0---------------|-----------------|
A|-----------------|-2---------------|-----------------|-----------------|
E|-3---------------|-----------------|-----------------|-----------------|

         G
e|-----3---2-3-10--|-------------10--|-------------10--|-10-12-------------|
B|---3---3---------|-----8---7-8-----|-----8---7-8-----|-------13-12-10----|
G|-----------------|---0---0---------|---0---0---------|----------------12-|
D|-----------------|-----------------|-----------------|--0----------------|
A|-----------------|-----------------|-----------------|-------------------|
E|-3---------------|-7---------------|-8---------------|-------------------|


Verse 1:

e|--------------------------------------3------------------------------|
B|-0-----0-----0-1-3-0-----0---------1--1--------0--------0------0-1-3-|
G|-----0---0-2---------0-2---0-----0----2--0------------0----0-2-------|
D|---0---------------------------2------0----2-0------0----------------|
A|-------------2---------3-----3---------------------------------2-----|
E|-3------------------------------------------------3------------------|


e|-----2-3-0-------0-------2--0-2-2-3-------------------------------------0|
B|---------------0-------2------------3-------3----1-0-3-0---0-----------0-|
G|-2-0---------0-------2--------------------0--------------2---0-------0---|
D|----------------------------------------0------1-------------------0-----|
A|-----3-----3-------4------------------2--------------------------0-------|
E|---------------------------------------------------------------0---------|

Chorus:

e|-------------------------2-------------------------2-----------------|
B|-----1-0-1-0-3-0-------3-----0-1-0-1-0-3-0-------3----------0--------|
G|---0-------------2---2-----2---------------2---2------0--------------|
D|-2-----------------0-------------------------0----------2-0----------|
A|---------------------------2-----------------------------------------|
E|-----------------------------0---------------------------------------|

Verse 2:

e|--------------------------------------3------------------------------|
B|-0-----0-----0-1-3-0-----0---------1--1--------0--------0------0-1-3-|
G|-----0---0-2---------0-2---0-----0----2--0------------0----0-2-------|
D|---0---------------------------2------0----2-0------0----------------|
A|-------------2---------3-----3---------------------------------2-----|
E|-3------------------------------------------------3------------------|


e|-----2-3-0-------0-------2--0-2-2-3-------------------------------------0|
B|---------------0-------2------------3-------3----1-0-3-0---0-----------0-|
G|-2-0---------0-------2--------------------0--------------2---0-------0---|
D|----------------------------------------0------1-------------------0-----|
A|-----3-----3-------4------------------2--------------------------0-------|
E|---------------------------------------------------------------0---------|

repeat Chorus:

e|-------------------------2-------------------------2--------2-------0-|
B|-----1-0-1-0-3-0-------3-----0-1-0-1-0-3-0-------3--------0-------0---|
G|---0-------------2---2-----2---------------2---2--------2-------0-----|
D|-2-----------------0-------------------------0--------1---------------|
A|---------------------------2------------------------------------------|
E|-----------------------------0--------------------------------0-------|

Bridge:

e|---0-2-2-3-2-------------0-0-1-0-----------------------------------|
B|-0-----------0-3-------3-----------1-------1-1-3-4-4-3-------------|
G|---------------------2-----------2-------0-------------0-2---------|
D|-------------------4-----0-------------2---------------------------|
A|-----------------2-------------------0-----------------------------|
E|-------------------------------------------------------------------|

repat chorus

Chorus:

e|-------------------------2-------------------------2-----------------|
B|-----1-0-1-0-3-0-------3-----0-1-0-1-0-3-0-------3----------0--------|
G|---0-------------2---2-----2---------------2---2------0--------------|
D|-2-----------------0-------------------------0----------2-0----------|
A|---------------------------2-----------------------------------------|
E|-----------------------------0---------------------------------------|

repeat intro


e|-----3---2-3-10--|-------------10--|-------------10--|-10-12-------------|
B|---3---3---------|-----8---7-8-----|-----8---7-8-----|-------13-12-10----|
G|-----------------|---0---0---------|---0---0---------|----------------12-|
D|-----------------|-----------------|-----------------|--0----------------|
A|-----------------|-----------------|-----------------|-------------------|
E|-3---------------|-7---------------|-8---------------|-------------------|

e|-----3---2-3-10--|-------------10--|-------------10--|-10-12-------------|
B|---3---3---------|-----8---7-8-----|-----8---7-8-----|-------13-12-10----|
G|-----------------|---0---0---------|---0---0---------|----------------12-|
D|-----------------|-----------------|-----------------|--0----------------|
A|-----------------|-----------------|-----------------|-------------------|
E|-3---------------|-7---------------|-8---------------|-------------------|


comments @ my email address..
i'm offering this for Albert and Nikki..hehehe.. sabi nia..
and also for Caloocan City Science High School..
hehe..
            
Submit corrections

comments powered by Disqus
↑ Back to top | Erik Santos Tabs for It Might Be You. Lyrics for acoustic guitar and electric guitar. Tablatures and chords are parodies/interpretations of the original songs. You may use it for private study, scholarship, research or language learning purposes only