>
 >
Kung Akin Ang Mundo

Kung Akin Ang Mundo Guitar Tabs

Erik Santos - Kung Akin Ang Mundo chords, tabs, tablatures, lyrics

Guitar lessons | Add/correct | Request | Top 50 tabs Artists:  A B C D E F G H I J K L M N O P Q R S T U V W X Y Z 0-9

Kung Akin Ang Mundo Guitar Tabs – Erik Santos

CD, Sheet music, Poster

Do you like Kung Akin Ang Mundo? Share with your friends now
ChordsChords v2TabsTabs v2Tabs v3Tabs v4Ukulele
KUNG AKIN ANG MUNDO
ERIK SANTOS

NOTE:Capo on 2nd FRET
Standard tuning: EADGBE

Intro 1:
	[---2--3----2------2-----3----5------|
	[---------3-----3-----3----3---------|
	[------------------------------------|	2x
	[------------------------------------|
	[---3-------3------2----------2------|
	[------------------------------------|

Intro 2:
	[---1--0-------------------------------|
	[--------3----1--3------------3-----3--|
	[----------------------------2------2--|
	[--------------------------0--------0--|
	[---1----1----1--------0---------------|
	[--------------------------------------|

Verse:
	[--------------------------------------------|
	[------------------3-----------------3-------|
	[--------0------0----------0------0----------|
	[------0------0----------2------2------------|
	[-----------2----------0------0--------------|
	[--3-----------------------------------------|
	     (1) Kung ako...
	          Ibibigay...
	     (2) Kung ako ang hari..
	          lagi kitang....

	[--------------------------------------------------|
	[---------1-------1--------------3-----------3-----|
	[------0-------0--------------0-----------0--------|
	[----2-------2--------------0----------0-----------|
	[--0----------------------2----------2-------------|
	[--------------------------------------------------|
	  Araw..	        pasisikatin...
	hindi na...             ang iyong mga mata..


	[----------------------------------------------|
	[------------1---------1---------------3-------|
	[----------0--------0----0----------0----------|
	[-------2--------2----------------0------------|
	[----0-----------------------------------------|
	[------------------------------3---------------|
	  buwan...		         pabibilugin...
	  mananatiling...	         ngiti....

    [------0---------------0----------------------------|
    [---------1---------1--------------------3----1-----|
    [----0-----------0---------------------2------2-----|
    [-------------2--------------------0--------- 0-----|
    [-0------------------------------0------------------|
    [---------------------------------------------------|
	para sa iyo..	          para sa iyo..

Chorus 1:

    [------------------------------------------------------------|
    [---5------------------5-----------3-------3----------3------|
    [----------4--------------4--------------2----------2--------|
    [-------5-----5-----5-----------------4----------4-----------|
    [---3------------3-----------------2-----------2-------------|
    [------------------------------------------------------------|
	    Susungkitin.....		para lang...
	    Kung pwede lng...		maging akin....

[------------------7--------------------------------------------3------|
[-----------5---------5-------------------------------3----------3-----|
[--------------5------------------------------------0------------4-----|
[-------5----------5-----------------7----------0-----------0----3-----|
[----7----------------------------7------------------------------------|
[-5----------------------------5-------------3------------3------------|
 na sana'y...		       puso	     mo


	[---------------------------------------------------------------|
	[-----------1------------1------------------------3--3----------|
	[--------0----0------0-----0------------------2------2----------|
	[-----2------------------------2---0-------0---------0----------|
	[--0--------------0---------------------0-----------------------|
	[---------------------------------------------------------------|
	  Ang lahat ng ito...			iaalay ko sa iyo....

do intro 1 (1x)
do intro 2


Chorus 2:
Note:  tap the guitar here and better listen to the song to get the timing. (",) ska katunog naman
RauL_Brillantes

	[--3-------------------3--------------------2----2------------|
	[--5------5------5-------5-------3--- 3-----3-------3---------|
	[--4------4------4---------------2--- 2-----2-----------------|
	[------5------------------------------------------------------|
	[--3----------3--3-----------3---2----------2--------------2--|
	[-------------------------------------------------------------|
	 Susungkitin...	              para lang....
	 Kung pwede lng...	      maging akin...

[----------------7------7----------------------------------------|
[--------------------------------------------------3--------3----|
[-----------5-----------------------------------0-----------0----|
[--------5--------------5----------5--------0----------0----0----|
[-----7-------------------------7--------------------2------2----|
[--5-----------------5-------5-----------3-----------------------|
 na sana'y maging akin       puso        mo     at     damdamin


[------------------------------------------------------------------|
[-----------1-----------1----------------------3---3---------------|
[--------0----0------0----0-----------------2----- 2---------------|
[-----2-----------------------2--0-------0---------0---------------|
[--0--------------0--------------------0---------------------------|
[------------------------------------------------------------------|
 Ang lahat ng ito...			iaalay ko

	Strum  na lng ang ginamit ko d2, e2 yung mga chords
	[---0--------0-------------------1----------1----------------------|
	[---1--------3--------1----------3----------4----------------------|
	[---0--------0--------0----------1----------1----------------------|
	[---2--------0--------0----------3----------3----------------------|
	[---0--------2--------1----------1----------1----------------------|
	[------------------------------------------------------------------|
 	sa iyo....ooh         ooh	ooh        oooh

Last Chorus w/ 1 note higher:
Note:Yan po yung Chords, paki strum n lng po, ska slamat po sa chords nung isang tab 
di ko po alm e-mail u,tnx ulit.
RauL_Brillantes

    [--4-4-4-4------3-3-3-3-------1-1-1-1------------------------|
    [--6-6-6-6------4-4-4-4-------2-2-2-2------------------------|
    [--5-5-5-5------3-3-3-3-------1-1-1-1------------------------|
    [--6-6-6-6------5-5-5-5-------3-3-3-3------------------------|
    [--4-4-4-4------3-3-3-3-------1-1-1-1------------------------|
    [------------------------------------------------------------|
	Susungkitin...  para lang.... na sana'y maging akin

	[--4-4-4-4-----------4-4-4-4---|
	[--4-4-4-4-----------4-4-4-4---|
	[--5-5-5-5-----------5-5-5-5---|
	[--6-6-6-6-----------4-4-4-4---|
	[--6-6-6-6-----------6-6-6-6---|
	[--4-6-6-6-----------4-4-4-4---|
	    mo       at     damdamin


[--1-1-1-1-------3-3-3-3-------1-1-1-1--------------1-----|
[--2-2-2-2-------4-4-4-4-------2-2-2-2--------------4-----|
[--1-1-1-1-------3-3-3-3-------1-1-1-1----------3---3-----|
[--3-3-3-3-------5-5-5-5-------3-3-3-3----------1---1-----|
[--1-1-1-1-------3-3-3-3-------1-1-1-1----------1---1-----|
[---------------------------------------------------------|
Ang lht ng ito,ang lht ng ito,ang lht ng ito.. iaalay..

do intro 1 (1x)

Para nga pala ito sa mga taga-lokal ng Skyline po at Polo. =)





Comments


Popular Erik Santos tabs & chords
Here I Am Chords
Here I Am 1 Chords
I'll Never Go 1 Chords
Kulang Ako Kung Wala Ka Chords
Parting Time Chords
Say You Never Go Chords
Your Love Chords
Your Love 2 Chords
It Might Be You 1 Tabs
Next In Line Ukulele


Song lyrics



↑ Back to top | Tablatures and chords are parodies/interpretations of the original songs. You may use it for private study, scholarship, research or language learning purposes only
© 2014 AZChords.com Contact us | Privacy policy | DMCA | Add/correct tabs | Request tabs | Top 50 tabs