>
 >
Minsan 3

Minsan 3 Bass Tabs

Eraserheads - Minsan 3 chords, tabs, tablatures, lyrics

Guitar lessons | Add/correct | Request | Top 50 tabs Artists:  A B C D E F G H I J K L M N O P Q R S T U V W X Y Z 0-9

Minsan 3 Bass Tabs – Eraserheads

CD, Sheet music, Poster

Do you like Minsan 3? Share with your friends now
Bass TabsBass Tabs v2Bass Tabs v3ChordsChords v2Chords v3TabsTabs v2Tabs v3Tabs v4Tabs v5Tabs v6Tabs v7Ukulele
-----------------------------------------------------------------------------
			     Minsan - Eraserheads
-----------------------------------------------------------------------------


Tuning: Standard (Pakinggan niyo na lang po yung kanta para sa timing)

Verse 1: “Sa ilalim ng iisang bubong…”

G|--------------------------------------------------------------------------|
D|--------------------------------------------------------------------------|
A|--------------------------------------------------------------------------|
E|-7-8-8-7-8-9--9-9--9-9--7-8-8-7-8-6--6-6--6-6--7-8-8-7-9-5--5-5--5-5------|

G|----------------------------------------|
D|----------------------------------------|
A|----------------------------10-10h12-10-|
E|-7-8-8-7-8-10--10-10--10----------------|

Refrain: “Ngunit ngayon, kay bilis maglaho ng kahapon…”

G|--------------------------------------------------------------------------|
D|--------------------------------------4-4-5-6-9--9-9--9-9-8-9---8-9--9-9--|
A|-5--5-5--5-5--5-5-5-5--5--5-5--5-5--5-------------------------------------|
E|--------------------------------------------------------------------------|

G|--------------------------------------------------------------------------|
D|-9-9—-11/12\11--6--6-6--6-6--6-6----7-6--6-6--6-6--6-6--6-8--8-8--8-8--8-8|
A|----------------------------------7---------------------------------------|
E|--------------------------------------------------------------------------|

Chorus 1: “At kung sakaling gipitin ay laging iisipin na minsan tayo ay naging tunay na magkaibigan”

G|--------------------------------------------------------------------------|
D|-----------------------------------------------------------------------5~-|
A|-7-9--9-9--8-10--10-10--7-9--9-9--8-10--10-10--5--5-5---------------------|
E|-------------------------------------------------------5--5-5--3--3-3-----|

Solo:

G|--------------------------------------------------------------------------|
D|--------------------------------------4-4-5-6-5-----------------4-4-4-5---|
A|-5--5-5--5-5--5-5-5-5--5--5-5--5-5--5------------5--5-5--5-5--5-----------|
E|--------------------------------------------------------------------------|

G|--------------------------------------------------------------------------|
D|-8--8-8--8-8--8-8--4-5-7--7-7--7-7—7h9p7-7--------------------------------|
A|-------------------------------------------7--7-7--7-7-----12-10--10-10---|
E|--------------------------------------------------------10----------------|

G|------------------------------------------|
D|------------------------------------------|
A|-10-10--10-10--10-12--12-12--12-12--12-12-|
E|------------------------------------------|

(Repeat Chorus)

Verse 2: “Minsan ay parang wala ng bukas sa buhay natin…”

G|--------------------------------------------------------------------------|
D|----------------4-4-5-----------------------------------------------------|
A|-5--5-5--5-5--5-------5--5-5--5-5--5-6-6-5--4--4-4--4-4--4-4--5-7-8--8-8--|
E|--------------------------------------------------------------------------|

G|--------------------------------------------------------------------------|
D|------------------------------4-4-5-6----------------4-4-5-6--------------|
A|-8-8—12/13\12--5--5-5--5-5--5---------5--5-5--5-5--5---------3--3-3--3-3--|
E|--------------------------------------------------------------------------|

G|-------------------------------|
D|-------------------------------|
A|-3-3------7--7-7--7-7—12h13p12-|
E|------4-6----------------------|

Refrain: “Ngunit ngayon, kay bilis maglaho ng kahapon…”

G|--------------------------------------------------------------------------|
D|----------------4-4-5-6----------------4-4-5-6----------------4-4-5-6-5---|
A|-5--5-5--5-5--5---------5--5-5--5-5--5---------5--5-5--5-5--5-------------|
E|--------------------------------------------------------------------------|

G|--------------------------------------------------------------------------|
D|-5-5--5-5--5-5--5--5-5--5-5—11h12p11--4--4-4--4-4--4-4----7-5--5-5--5-5---|
A|--------------------------------------------------------6-----------------|
E|--------------------------------------------------------------------------|

G|-------------------------|
D|-5-5--4-6-7--7-7--7--7-7-|
A|-------------------------|
E|-------------------------|

(Repeat Chorus)

Chorus 2: “Minsan ay hindi mo na alam ang mangayayari…”

G|--------------------------------------------------------------------------|
D|--------------------------------------------------------------------------|
A|-9-9-9-9-9-9-9-9-9-9-7-7-7-7-7-7-7-7-7-7-5-5-5-5-5-5-5-5-5-5-5-5-6-6-6-6--|
E|--------------------------------------------------------------------------|

G|--------------------------------------------------------------------------|
D|--------------------------------------------------------------------------|
A|-6-6-6-6-6-6-7-7-7-7-7-7-7-7-7-7-7-7-4-4-4-4-4-4-4-4-4-4-4-4-3-3-3-3-3-3--|
E|--------------------------------------------------------------------------|

G|--------------------------------------------------------------------------|
D|--------------------------------------------------------------------------|
A|-3-3-3-3-5-5-5-5-5-5-5-5-5-5-7-7-7-7-7-7-7-7-7-7-5-5-5-5-5-5-5-5-5-5-5-5--|
E|--------------------------------------------------------------------------|

G|-----------------------------------------------------|
D|-----------------------------------------------------|
A|-6-6-6-6-6-6-6-6-6-6-6-6-6-7-7-7-7-7-7-7-7-7-7-7-7---|
E|-----------------------------------------------------|

“Ngunit kung sakaling mapadaan baka ikaw ay aking tawagan dahil minsan tayo ay naging
na magkaibigan”

G|-----------------1~-------------------------------------------------------|
D|-5~--6~--5~--6~-----------------------------------------------------------|
A|---------------------7--7-7--7-7--9-7--0-3--3-3--3-3----------------------|
E|------------------------------------------------------4-6-6-7--7-7--7-7-7-|

G|----------------------|
D|----------------------|
A|----------------------|
E|-8-10--10-12~--12-14~-|





Comments


Popular Eraserheads tabs & chords
Huwag Mo Nang Itanong Bass Tabs
Ang Huling El Bimbo 5 Chords
Cutterpillow Chords
Julie Tearjerky 2 Chords
Shirley Chords
Kisapmata Tabs
Poor Mans Grave Tabs
Buses And Trains Ukulele
Ha Ha Ha Ukulele
Superproxy Ukulele


Song lyrics



↑ Back to top | Tablatures and chords are parodies/interpretations of the original songs. You may use it for private study, scholarship, research or language learning purposes only
© 2014 AZChords.com Contact us | Privacy policy | DMCA | Add/correct tabs | Request tabs | Top 50 tabs