» » »

Minsan Tabs (ver.1)

Artists:  A B C D E F G H I J K L M N O P Q R S T U V W X Y Z # 

Minsan Tabs (ver.1)

Eraserheads
Rating:
0/5 (0 votes)

Hard to play? Try these video lessons and learn fast.
                standard tuning (EADGBe)
*****************************************************************************************


Guitar 1:
Strumming pattern is 3/4

C#		      C#M7
Minsan sa may Kalayaan
		   C#7
tayo'y nagkatagpuan
    		      F#
May mga sariling hilig 
				  C#-C#sus
at kaniya kaniyang hangad sa buhay


C#			  C#M7
Sa ilalim ng iisang bubong
			 C#7
mga sikretong ibinubulong
		       F#
Kahit na anong mangyari
			    C#
kahit na saan ka man patungo

	     C#M7
Ngunit ngayon
C#7			F#
kay bilis maglaho ng kahapon
F#m	        C#
Sana'y wag kalimutan
F#m		G#     
ang ating mga pinagsamahan


Refrain:
   Fm         F#
At kung sakaling gipitin
   Fm          F#
Ay laging iisipin
   C#         G#
na minsan tayo ay
       F#      F#m
naging tunay na
       (start solo here)
magkaibigan



chord pattern for guitar 1 in solo
C#-C#M7-C#7-F#-F#m-C#-F#m-G#-Fm-F#-Fm-F#-C#-G#-F#-F#m

Guitar 2 solo:
e||----------------------------------------------------------------------------
B||----------------------------------------------------------------------------
G||------------------10-----------------------------------------------12/13-11-
D||-----11--11/13-11----11-------------------------13--13-11-------11----------
A||--11--------------------12-11---11-13-14--13-14-----------14-13-------------
E||----------------------------------------------------------------------------

e|-----------------------------13/14-13------------14-17-16h17-16-19--19-17-16-----------------
B|----------------14--14/16-14----------16-14---14-----------------------------16---14-13------
G|11-13-14--13-14-------------------------------------------------------------------------15-13
D|---------------------------------------------------------------------------------------------
A|---------------------------------------------------------------------------------------------
E|---------------------------------------------------------------------------------------------

e|-13----------------14----------------13----------------14----------11-13/14-13-
B|----13----------13----14----------14----13----------13----14-------------------
G|-------13----13----------14----14----------13----13----------14----------------
D|----------15----------------16----------------15----------------16-------------
A|-------------------------------------------------------------------------------
E|-------------------------------------------------------------------------------

e|--13h14-11-11------------------------------------||
B|--------------14-13-14/16-14-13-14---------------||
G|------------------------------------14-----------||
D|-----------------------------------------16--15~-||
A|-------------------------------------------------||
E|-------------------------------------------------||


(Do chord pattern for stanza, refrain and chorus)
After chorus,"raise the chords by 2 frets"



outro:
e|---------------------------------------------------11~-||
B|-------------8--8-9-8--------------9--9-9/11-11/12-----||
G|---8--8/10-8-----------10--10-9-10---------------------||
D|-8-----------------------------------------------------||
A|-------------------------------------------------------||
E|-------------------------------------------------------||


| / slide up
| h Hammer-on
| ~ Let ring 
            
Hard to play? Try these video lessons and learn fast. | Correct




comments powered by Disqus
↑ Back to top | Tablatures and chords are parodies/interpretations of the original songs. You may use it for private study, scholarship, research or language learning purposes only