» » »

Eraserheads, Ligaya Tabs (ver.1)

Artists:  A B C D E F G H I J K L M N O P Q R S T U V W X Y Z # 

Ligaya Tabs (ver.1)

Eraserheads Tabs
 Rating:
4/5 (4 votes)
Ligaya lessons Tabs too difficult? Try these video lessons and learn fast
1
                TRY NYO MGA MASTER 100%
ADD NYO KO SA FRIENDTER

Gtr I (E A D G) - LIGAYA

 Intro
  Q=120
 4/4
  Gtr I
  W          +H.      Q    W          +H.      Q    H..        a  E
|----------|-------------|----------|-------------|------------------|
|----------|-------------|----------|-------------|-----------14h16--|
|-0--------|-(0)------0s=|=5--------|-(5)------5s=|=0----------------|
|----------|-------------|----------|-------------|------------------|


   S S  S S  S S  S  S  E  E  Q     W          E E H    Q
|-14---14---14---16-16s18S16-14\--|----------|--------------||
|---------------------------------|----------|--------------||
|---------------------------------|-5--------|-5--------7\--||
|---------------------------------|----------|--------------||


 Verse
  $
  Q.   S S Q.   S S   Q.   S S Q.   E   Q.   S S Q.   S S   Q.   S S Q.   E
|-------------------|-----------------|-------------------|-----------------|
|-------------------|---------------2-|-0----0-0----------|-0----0-0--------|
|-0----0-0----------|-0----0-0--------|---------------2h4-|-----------------|
|---------------0h3-|-----------------|-------------------|---------------0-|


                                                   To Coda
  Q.   S S Q.   S S   Q.   S S Q.   E   Q.   S S Q.   S S   Q.   S S Q  E E
|-------------------|-----------------|-------------------|-----------------|
|-------------------|---------------2-|-0----0-0----------|-0----0-0--------|
|-0----0-0----------|-0----0-0--------|---------------2h4-|-------------0-1-|
|---------------0h3-|-----------------|-------------------|-----------------|


  Q.   S S Q.   E   Q.   S S Q.   E   Q.   S S Q.   E   H    H
|-----------------|-----------------|-----------------|-----------|
|-----------------|---------------2-|-4----4-4------3-|-4----2----|
|-2----2-2------3-|-4----4-4--------|-----------------|-----------|
|-----------------|-----------------|-----------------|-----------|


                              Pre-Chorus
                         D.S.
  H..       E   E E H    Q     Q.   S S Q  E E   Q.   S S Q.   a E
|-------------|--------------|-----------------|---------------------|
|-------------|--------------|-0----0-0--------|---------------4s5s==|
|-5-----------|-5--------7\--|-------------5-4-|-2----2-2------------|
|-----------5-|--------------|-----------------|---------------------|


  &
  Q.   S S Q  E E   Q.   S S Q.   E   H    H      H.      Q
|-----------------|-----------------|-----------|-------------|
|-2----2-2----2-3-|-4----4-4------3-|-4----2----|-------------|
|-----------------|-----------------|-----------|-5-------9s==|
|-----------------|-----------------|-----------|-------------|


                             Chorus
                            Q=120(s16=16)
  E H.      E   E H..         E E E S E S S S E E   E E E E E E S S
|-------------|-------------|---------------------|-----------------|
|-------------|-------------|-----2---3---3s6S5-3-|-3-3-2-0---------|
|-5---------7-|-9-----------|-3-3---3---3---------|---------3-3-3s5-|
|-------------|-------------|---------------------|-----------------|
            
Submit corrections

comments powered by Disqus
↑ Back to top | Eraserheads Tabs for Ligaya. Lyrics for acoustic guitar and electric guitar. 1 Tablatures and chords are parodies/interpretations of the original songs. You may use it for private study, scholarship, research or language learning purposes only