>
 >
Ligaya 2

Ligaya 2 Guitar Tabs

Eraserheads - Ligaya 2 chords, tabs, tablatures, lyrics

Guitar lessons | Add/correct | Request | Top 50 tabs Artists:  A B C D E F G H I J K L M N O P Q R S T U V W X Y Z 0-9

Ligaya 2 Guitar Tabs – Eraserheads

CD, Sheet music, Poster

Do you like Ligaya 2? Share with your friends now
Bass TabsBass Tabs v2ChordsChords v2Chords v3Chords v4Chords v5Chords v6Chords v7TabsTabs v2Tabs v3Tabs v4Tabs v5Ukulele

intro:
e|-------0------0------0------3----------3-------0-----|
B|-------0------3------0------2--------2-------0-------|
G|-------2------2------2------3------3-------1---------|
D|-------2------0------2------0----0-------2-----------|
A|-------0------0------0------0------------------------|
E|-------x------x------x------x------------------------|

verse1:

e|-------0-------------0------0-------0-------0--------|
B|-------0------0------0--------------0-------3--------|
G|-------2-------------3--------------2-------2--------|
D|-------2-------------2--------------2-------0--------|
A|-----------------------------------------------------|
E|-----------------------------------------------------|

e|-------10-----12------13---------------5-------------|
B|---7/9---9/11---11/12---------12---10--7-------------|
G|----------------------------13---11---7--------------|
D|-----------------------------------------------------|
A|-----------------------------------------------------|
E|-----------------------------------------------------|

e|---------2---------0---------------------------------|
B|-------3---------0-----------------------------------|
G|-----2---------1-------------------------------------|
D|---0---------2---------------------------------------|
A|-----------------------------------------------------|
E|-----------------------------------------------------|

verse2:

e|-------0-------------0------0-------0-------0-------3-1|
B|-------0------0------0--------------0-------3-----3----|
G|-------2-------------3--------------2-------2----2-----|
D|-------2-------------2--------------2-------0----------|
A|-------------------------------------------------------|
E|-------------------------------------------------------|

e|-------10-----12------13---------------5-------------|
B|---7/9---9/11---11/12---------12---10--7-------------|
G|----------------------------13---11---7--------------|
D|-----------------------------------------------------|
A|-----------------------------------------------------|
E|-----------------------------------------------------|

refrain:

e|-----3--------3-----------0---------------------------|
B|-----2--------2-----------0---------------------------|
G|-----3- hold -3-- hold ---0---strumming n po tyo------|
D|-----0--------0-----------2-----from here-------------|
A|-----0--------0-----------3---------------------------|
E|-----x--------x-----------x---------------------------|

chorus:

e|-----0--------0--------0--------0---------0-------------|
B|-----1--------0--------1--------0---------1-------------|
G|-----2--------0--------2--------0---------2-------------|
D|-----3--------2--------3--------2---------3-------------|
A|-----0--------3--------0--------3---------0-------------|
E|-----0--------x--------0--------x---------0-------------|

e|-----0--------0--------0--------0----------------------|
B|-----0--------1--------0--------1----------------------|
G|-----0--------2--------0--------2----------------------|
D|-----2--------3--------2--------3----------------------|
A|-----2--------0--------2--------0----------------------|
E|-----0--------0--------0--------0----------------------|

e|-----2--------4--------3---------0------3--0-------------|
B|-----1--------4--------3---------0------2--0-------------|
G|-----2--------5--------4-pause---0------3--1-------------|
D|-----0--------6--------5---------2------0--2-------------|
A|-----0--------6--------5---------3------0--2-------------|
E|-----x--------4--------3---------x------x--0-------------|

adlib:

e|-----5------5--------------------|
B|-----5------5h7------------------|
G|-----5h6----5h7------------------|    2 times     
D|-----7------7--------------------|
A|-----7------5--------------------|
E|-----5------x--------------------|

e|-----2-----0-----4-----2-----0-----3---------------------|
B|-----2-----0-----5-----2-----0-----2---------------------|
G|-----3-----1-----4-----2-----1-----3---------------------|
D|-----4-----2-----6-----4-----2-----0---------------------|
A|-----4-----2-----4-----4-----2-----0---------------------|
E|-----x-----0-----x-----2-----0-----x---------------------|

e|---------2---------0---------------------------------|
B|-------3---------0-----------------------------------|
G|-----2---------1-------------------------------------|
D|---0---------2---------------------------------------|
A|-----------------------------------------------------|
E|-----------------------------------------------------|

verse3: strumming p0 lhat d2

e|-------0------0-----0-----0--------|
B|-------0------0-----0-----3--------|
G|-------2------3-----2-----2--------|
D|-------2------2-----2-----0--------|
A|-----------------------------------|
E|-----------------------------------|

(Repeat Refrain and Chorus except last 2 chords)
(Repeat Chorus 2x)

kayo n humusga kung may mali o mali lhat kyo npo bhala mag bago....
comments are free.... god bless me!





Comments


Popular Eraserheads tabs & chords
Maling Akala Bass Tabs
Kama Supra Chords
Kailan Tabs
Poormans Grave 2 Tabs
Tuwing Umuulan At Kapiling Ka Tabs
Wishing Wells Tabs
Butterscotch Ukulele
Fruit Fairy Ukulele
Nananalangin Ukulele
Pare Ko Ukulele


Song lyrics



↑ Back to top | Tablatures and chords are parodies/interpretations of the original songs. You may use it for private study, scholarship, research or language learning purposes only
© 2014 AZChords.com Contact us | Privacy policy | DMCA | Add/correct tabs | Request tabs | Top 50 tabs