» » »

Eraserheads, Kailan Tabs (ver.1)

Artists:  A B C D E F G H I J K L M N O P Q R S T U V W X Y Z # 

Kailan Tabs (ver.1)

Eraserheads Tabs
 Rating:
4/5 (4 votes)
Kailan lessons Tabs too difficult? Try these video lessons and learn fast
                -----------------------------------------------------------------------------
-----------------------------------------------------------------------------

Tuning: Standard

Intro:

E|------------------------------------------------|
B|------------------------------------------------|
G|-5-5-5-5-7-9-10-10-10-10-9-7--------------------|
D|-5-5-5-5-7-9-10-10-10-10-9-7-10-10-10-10-9-7-5~-|
A|-3-3-3-3-5-7-8--8--8--8--7-5-10-10-10-10-9-7-5~-|
E|-----------------------------8--8--8--8--7-5-3~-|

Verse: “Kailan mo ako hahagkan?”

E|--------------------------------------------------------|
B|--------------------------------------------------------|
G|-12--9--7--12--12--9--7--12--12--9--7--12--12--9--7--12-|
D|-10--9--7--12--10--9--7--12--10--9--7--12--10--9--7--12-|
A|-----7--5--10------7--5--10------7--5--10------7--5--10-|
E|--------------------------------------------------------|

Chorus: “Kailan ko mararamdaman pagdampi ng iyong labi?”

E|---------10--------------10---------------11----------------11----------|
B|----9-------9-------9-------9-------10-------10-------10-------10-------|
G|-11---11------11-11---11------11-10----10-------10-10----10-------10-12-|
D|------------------------------------------------------------------------|
A|------------------------------------------------------------------------|
E|------------------------------------------------------------------------|

E|-------13----------------13-------------------------------------| Repeat
B|-11-------11-------11-------11-----------------------------9~---| Verse
G|----12-------12-12----12-------12--5/7-7/8-8/9-9/10-10/11--8~---| then…
D|-----------------------------------5/7-7/8-8/9-9/10-10/11--6~---| Repeat
A|-----------------------------------3/5-5/6-6/7-7/8--8/9---------| Chorus
E|----------------------------------------------------------------| then…

Bridge: “Kailan ko masisilayan sa araw – araw aking mahal mula paggising hanggang sa pag 
idlip…” (Use Wah Effect)

E|------------------------------------------------------------------------|
B|----------6~---------------6~----------7~--------------7~---------------|
G|-10~--5~------5~--10~--5~------5~--7~------7~--9~--7~------8~--10~--12~-|
D|------------------------------------------------------------------------|
A|------------------------------------------------------------------------|
E|------------------------------------------------------------------------|

Verse: “Kailan mo ako hahagkan?”

E|----------9-------------7-----------6-----5/7-5-7-5-| Repeat this tab
B|----11------11------9-----9-----8-----8-------------| thrice then…
G|-10----10------10-8---8-----8-7---7-----7-----------|
D|----------------------------------------------------|
A|----------------------------------------------------|
E|----------------------------------------------------|

E|----------9-------------7-----------6--------------------------| Repeat
B|----11------11------9-----9-----8-----8---10/12-12-12-12\10-10-| Chorus
G|-10----10------10-8---8-----8-7---7-----7----------------------| then…
D|---------------------------------------------------------------|
A|---------------------------------------------------------------|
E|---------------------------------------------------------------|

“Mga rehas lang ang tanaw, nanginginig sa seldang maginaw…”

E|-13~--------------------------------------|
B|------------------------------------------|
G|------5-5-5-5-7-9-10-10-10-10-9-7-5-------|
D|------5-5-5-5-7-9-10-10-10-10-9-7-5--7-6~-|
A|------3-3-3-3-5-7-8--8--8--8--7-5-3--7-6~-|
E|-------------------------------------5-4~-|
            
Submit corrections

comments powered by Disqus
↑ Back to top | Eraserheads Tabs for Kailan. Lyrics for acoustic guitar and electric guitar. Tablatures and chords are parodies/interpretations of the original songs. You may use it for private study, scholarship, research or language learning purposes only