>
 >
Kailan

Kailan Bass Tabs

Eraserheads - Kailan chords, tabs, tablatures, lyrics

Guitar lessons | Add/correct | Request | Top 50 tabs Artists:  A B C D E F G H I J K L M N O P Q R S T U V W X Y Z 0-9

Kailan Bass Tabs – Eraserheads

CD, Sheet music, Poster

Do you like Kailan? Share with your friends now
Bass TabsBass Tabs v2Bass Tabs v3ChordsTabsUkulele
Kailan
Eraserheads

Intro 
G|------------------------------------------------------|
D|-------------0-2-3--3-3-3-3-3-3-2-0-------------------|
A|-3-3-3-3-3-3------------------------3-3-3-3-3-3-0-0---|
E|----------------------------------------------------3-|

Verse1 
G|-----------------------------|      -----------------------------|
D|--------2--3-2----------2----|      --------2--3-2------5--2-5---|
A|-3--3-5--------5-----5---5-5-| 4x   -3--3-5--------5---5-------5-|
E|------------------3-3--------|      ------------------3----------|

Chorus1 
G|----------------------------------------------------------|
D|----------------------------------------------------------|
A|-7-7-7-7--7-7-7-7--5-5-5-5-5--5-5-5-5-5--8-8-8-8--5-5-5-5-|
E|----------------------------------------------------------|

G|--------------------------------------------|
D|--------------------------------------------|
A|-7-7-7-7-7-7--5-5-5-5-5-5--8-8-8-8-8-8------|
E|----------------------------------------3---|

Verse2 
G|-----------------------------|-----------------------------|
D|--------2--3-2----------2----|--------2--3-2------5--2-5---|
A|-3--3-5--------5-----5---5-5-|-3--3-5--------5---5-------5-|
E|------------------3-3--------|------------------3----------|

G|-----------------------------|---------------------------------|
D|--------2--3-2----------2----|--------2--3-2------5-----5------|
A|-3--3-5--------5-----5---5-5-|-3--3-5--------5---5--7--5--7--5-|
E|------------------3-3--------|------------------3--------------|

Chorus2 
G|----------------------------------------------------------|
D|----------------------------------------------------------|
A|-7-7-7-7--7-7-7-7--5-5-5-5-5--5-5-5-5-5--8-8-8-8--5-5-5-5-|
E|----------------------------------------------------------|

G|------------------7------7--------------10----|
D|----------------7------7----------------------|
A|-7-7-7-7-7-7--5------5------8-8-8-8-8-8----10-|
E|----------------------------------------------|

Bridge 
G|---------------------------------|---------------------------------|
D|--------------1--1-1-3-1---------|--------------1--1-1-3-1---------|
A|-------1--1-3------------3-1-1---|-------1--1-3------------3-1-----|
E|-1--1-3------------------------3-|-1--1-3----------------------3-1-|

G|------------------------------------|
D|---------------3-3-3-3------3-3-3-3-|
A|--------3--3-5----------3-5---------|
E|-3--3-3-----------------------------|

G|----------------------------------------------------------------------|
D|-3-------------------3-3-3-3-3-3-3-3-3-3-3-3-3-3-3-3--5-5-5-5-5-5-5-5-|
A|--------------3--3-5--------------------------------------------------|
E|---1-3-3--3-5---------------------------------------------------------|

Repeat Verse2
Repeat Chorus2

Coda
G|-------------|     |-----|----|-----------------------------------|
D|-------------|     |-----|----|-----------------------------------|
A|-3~----5~----|3x   |-3---|----|-3-3-3-3-3-3-7-7-7-7-7-7-5-5-5---3-|
E|----0~----3~-|     |---0-|----|-------------------------------3---|





Comments


Popular Eraserheads tabs & chords
Hard To Believe Bass Tabs
Kailan 2 Bass Tabs
Minsan 3 Bass Tabs
Huwag Mo Nang Itanong Chords
Tindahan Ni Aling Nina Chords
Alapaap (Intro) Tabs
Huwag Kang Matakot Tabs
Julie Tearjerky Tabs
With A Smile Tabs
Tollgate Ukulele


Song lyrics



↑ Back to top | Tablatures and chords are parodies/interpretations of the original songs. You may use it for private study, scholarship, research or language learning purposes only
© 2014 AZChords.com Contact us | Privacy policy | DMCA | Add/correct tabs | Request tabs | Top 50 tabs