>
 >
Huwag Mo Nang Itanong

Huwag Mo Nang Itanong Guitar Tabs

Eraserheads - Huwag Mo Nang Itanong chords, tabs, tablatures, lyrics

Guitar lessons | Add/correct | Request | Top 50 tabs Artists:  A B C D E F G H I J K L M N O P Q R S T U V W X Y Z 0-9

Huwag Mo Nang Itanong Guitar Tabs – Eraserheads

CD, Sheet music, Poster

Do you like Huwag Mo Nang Itanong? Share with your friends now
Bass TabsBass Tabs v2Bass Tabs v3ChordsTabsTabs v2Tabs v3Ukulele
HEY GUYS! I Just Revised The Riff On The Chorus Part! BALIKTAD EH! HEHEHE

 huwag mo nang itanong
 by eraserheads


	

		VERSE BASS TABS

	INTRO: drums comes in then play the rhythms guitar with the bass



	e|-----------------------------------------------|
	B|-----------------------------------------------|
	G|-----------------------------------------------| 1
	D|-----------------------------------------------|
	A|-------3-2-3---------3-2-3s7---5h6p3-----------|
	E|----3h5-----------3h5--------------------------|

	e|-----------------------------------------------|	
	B|-----------------------------------------------|
	G|-----------------------------------------------| 2
	D|-----------------------------------------------|
	A|-------3-2s7---------3-2-3s7---5h6p3-----------|
	E|----3h5-----------3h5--------------------------|
	

	e|-----------------------------------------------|
	B|-----------------------------------------------|	
        G|-----------------------------------------------| 3	
	D|-----------------------------------------------|
	A|-------3-2-3-5-7-5-3---------------------------|
	E|----3h5----------------------------------------|


	THE PRE-CHORUS: pre-chorus 1 and 2
	
	e|-----------------------------------------------|
	B|-----------------------------------------------|
	G|-----------------------------------------------| 4
	D|-----------------------------------------------|
	A|--------2-2s7-----7-5-4h5p3--------------------|
        E|----3-3----------------------------------------|
	

	e|-----------------------------------------------|
	B|-----------------------------------------------|
	G|-----------------------------------------------| 5
	D|---------------5-----------3---3-3h5-3---------|
	A|----3h5p3--5-7---7-----3h5---5-----------------|
	E|-----------------------------------------------|




 	tabs 1, 2, and 3 should be played two times on the verses.

	h = hammer to the said fret
	p = pull off to the said fret
	s = slide to the said fret

	NOW FOR THE CHORUS:

	 there no much bass rhythms here, just prolong the bass' sound to produce a nice lyrical effect

	e|-----------------------------------------------|
	B|-----------------------------------------------|
	G|-----------------------------------------------|
	D|-----------------------------------------------|
	A|-------------3l--5-3---------------------------|
 	E|-----3l--5l----------5-3-----------------------|
	

	AND FOR THE RHYTHM GUITARS... the filler after the "huwag mo nang itanong sa akin"
	this gives a very nice effect here
	
	e|---6-5-6---------------------------------------|
	B|-----------------------------------------------|
	G|-----------------------------------------------|
	D|-----------------------------------------------|
	A|-----------------------------------------------|
	E|-----------------------------------------------|


	AND THEN VERSE #2
	
	AND THEN THE PRE-CHORUS #2	

	AND THEN THE CHORUS


 	"l" means prolong or delay the bass sound for a second.



	NOW FOR THE BRIDGE:


	do the verse bass tabs.... and do this in the rhythm guitar

	EFFECTS HERE: some distortion 		
	NOTE: on the first part... the rhthm guitar and the base will play at the same time

	e|-----------------------------------------------|
	B|---7~~~~~~-------------------------------------|
	G|-----------------------------------------------|<==== 2 times
	D|----------------------5-4-5--------5-4-5s9-----|
	A|------------------5h7----------5h7-------------|
	E|-----------------------------------------------|


	e|-----------------------------------------------|
	B|---15-15-15p13-13-12-11----12-12-12p10-10-9-8--|
	G|-----------------------------------------------|<==== i think play this two times
	D|-----------------------------------------------|
	A|-----------------------------------------------|
	E|-----------------------------------------------|
	

	~ = means vibrato... or producing a wavy sound (playing the string up and down very fast but not stiff)

	
	AND THEN THE PRE-CHORUS #2

	AND THEN THE CHORUS #2 (same bass tab played... but chords are not)
	


	NOW THE OUTRO VERSES:
	
	THE REPEATING "huwag mo na"
	
	WHILE SINGING THE PHRASE... do this.. (like in the chorus)

	e|---6-5-6---------------------------------------|
	B|-----------------------------------------------|
	G|-----------------------------------------------|
	D|-----------------------------------------------|
	A|-----------------------------------------------|
	E|-----------------------------------------------|

	AND THE OUTRO TABS:	
 
	e|---2--2--2--2h3-2--------3--3--3--3s4-3-2------|
	B|--3--3--3--3-----3------3--3--3--3-------------|
	G|-----------------------------------------------| <==== repeat 5 times and fade..
	D|-----------------------------------------------|
	A|-----------------------------------------------|
	E|-----------------------------------------------|









	NOW FOR THE RHYTHM CHORDS:


	VERSE #1 

	EM7	 AM7 
	Hika ang inabot ko 

	EM7	 AM7 	
	Nang piliting sumabay sa'yo 

	EM7 
	Hanggang kanto 
	 
	AM7	EM7 
	Ng isipan mong parang Sweepstakes 

	AM7 
	Ang hirap manalo 
	





	PRE-CHORUS #1

	F#m	 G#m 
	Ngayon pagdating ko sa bahay 
	
	A 
	Ibaba ang iyong kilay 

	B 
	Ayoko ng ingay 
	




	CHORUS: 
	
	E	A 
	Huwag mo nang itanong sa akin 

	E 	A 
	Diko rin naman sasabihin 
	 
	E	A 
	Huwag mo nang itanong sa akin 

	F#m	 B 
	At di ko naiisipin 
	
	




	VERSE #2 

	EM7 	AM7 	EM7 
	Field trip sa may pagawaan ng lapis 
	
	AM7 	EM7 
	Ay katulad ng buhay natin 
	
	AM7 
	Isang mahabang pila 

	EM7 	AM7 
	Mabagal at walang katuturan 






	PRE-CHORUS #2
	
	F#m	 G#m 
	Ewan ko Hindi ko alam 

	A 
	Puwede bang huwag na lang 

	B 
	Natin pag-usapan 
	
	CHORUS 

	


	BRIDGE: 
	
	EM7 AM7 X4 
	
	



	CHORUS #2	
	
	F#	 B 
	Huwag mo nang itanong sa akin 

	F# 	B 
	Diko rin naman sasabihin 

	F#	 B 
	Huwag mo nang itanong sa akin 

	G#m	 C# 
	At di ko na iisipin 
	
	F# 	B 
	Huwag mo nang itanong sa akin 
	F#	 B 

	Diko rin naman sasabihin 

	F#	 B 
	Huwag mo nang itanong sa akin 

	G#m C# F#maj7 Bmaj7 
	At di ko na iisipin 






	OUTRO VERSES:

	F#M7 BM7 
	Huwag mo na 

	F#M7 BM7 
	Huwag mo na 

	F#M7 BM7 
	Huwag mo na   
 


	I Started tabbing this at 10:00 am July 29, 2001, natapos ng 11:46 am July 29, 2001.
	Napagtripan ko lang, walang magawa e, ka-PHY-PHYSICAL EXAM lang namin kahapon sa COCC, 
	kaya pagod na pagod ako, hindi tuloy ako nakasama sa birthday blowout ng mommy ko kay 
	Joham na siyang bunso kong kapatid. Hindi naman masyadong mahirap tugtugin... 

	MAGSAYA NA LANG TAYO!!! MGA SYOTA AY MAHALING MABUTI HA!!! I LOVE YOU TRIXIE!!!





Comments


Popular Eraserheads tabs & chords
Ang Huling El Bimbo 2 Chords
Casa Fantastica Chords
Maalalahanin Chords
Nananalangin Chords
Old Fashioned Christmas Carol 1 Chords
Run Barbi Run 1 Chords
Saturn Return Chords
Huling Elbimbo Tabs
Cutterpillow Ukulele
Shirley Ukulele


Song lyrics



↑ Back to top | Tablatures and chords are parodies/interpretations of the original songs. You may use it for private study, scholarship, research or language learning purposes only
© 2014 AZChords.com Contact us | Privacy policy | DMCA | Add/correct tabs | Request tabs | Top 50 tabs