>
 >
Huwag Mo Nang Itanong

Huwag Mo Nang Itanong Bass Tabs

Eraserheads - Huwag Mo Nang Itanong chords, tabs, tablatures, lyrics

Guitar lessons | Add/correct | Request | Top 50 tabs Artists:  A B C D E F G H I J K L M N O P Q R S T U V W X Y Z 0-9

Huwag Mo Nang Itanong Bass Tabs – Eraserheads

CD, Sheet music, Poster

Do you like Huwag Mo Nang Itanong? Share with your friends now
Bass TabsBass Tabs v2Bass Tabs v3ChordsTabsTabs v2Tabs v3Ukulele
-----------------------------------------------------------------------------
HUWAG MO NANG ITANONG - Eraserheads
-----------------------------------------------------------------------------


Tuning: Standard

Verse: “Hika ang inabot ko nang piliting sumabay sayo hanggang kanto nang isipan 
mong parang Sweepstakes…”

G|--------------------------------------------------------------------------|
D|---------------------7/9-7-6h7p6--------------------7/10-8-6h7p6----------|
A|-----7-6-7~------7-6----------------7-6/9~------7-6---------------7/9-7-6-|
E|-7h9---------7h9------------------9---------7h9---------------------------|

G|------------------------------------------------|
D|--------------7-6-----------------------7-6h7p6-|
A|-7--7-------6------7/9-7-6-7--7-------6---------|
E|------8-7-8---------------------8-7-8-----------|

Refrain: “Ngayon, pagdating ko sa bahay, ibaba ang iyong kilay…”

G|----------------------------------------------------|
D|-----5/6~--------6h7p6~------7h9-7~----------8h10p8-|
A|-----------7-------------------------------7--------|
E|-7\5---------7\5---------7\5---------7\5-9----------|

Chorus: “Huwag mo nang itanong sa akin…”

G|-------------------------------------------------------------------------|
D|-------------------------------------------------------------------------|
A|-----7-6-7~--------7-7-4------7-6-7~--------7-7-4------7-6-7~--------7-7-|
E|-7h9---------5-5-7--------7h9---------5-5-7--------7h9---------5-5-7-----|

G|----------------------| Repeat Verse then…
D|----------------------|
A|-4--------10h11p10----|
E|----7h9-9----------9~-|

Refrain: “Ngayon, hindi ko alam…”

G|--------------------------------------------------------------|
D|-----5/6~------6h7p6--------7h9p7-------------9h11p9-------7--|
A|-9-7-------9-7------------7-------------7h9p7--------7h9p7----|
E|----------------------7-5----------7-10-----------------------|

Chorus: “Huwag mo nang itanong sa akin…”

G|-------------------------------------------------------------------------|
D|-------------------------------------------------------------------------|
A|-----7-6-7~--------7-7-4------7-6-7~--------7-7-4------7-6-7~--------7-7-|
E|-7h9---------5-5-7--------7h9---------5-5-7--------7h9---------5-5-7-----|

G|-----------------------------| Repeat Verse then the Second Refrain then…
D|-----------------------------|
A|-4------7-6-7~--------9h11p9-|
E|----7h9---------7h9-9--------|

Chorus: “Huwag mo nang itanong sa akin…”

G|--------------------------------------------------------------------------|
D|--------------------------------------------------------------------------|
A|------9-8-9~--------9-9-6-------9-8-9~--------9-9-6-------9-8-9~--------9-|
E|-9h11---------7-7-9--------9h11---------7-7-9--------9h11---------7-7-9---|

G|------------------------------------------------------------------------|
D|----------7h8p7~-------------10h11p10-----------------------------------|
A|-9-6------------------7-9-11--------------9-8-9~--------9-9-6-------9-8-|
E|------9-7---------6-8------------------11---------7-7-9--------9h11-----|

G|------------------------------------------------------------------------|
D|------------------10-10/12-10~----------------------------------------8-|
A|-9~--------7-9-11------------------9-8-9~--------9-9-6------7/9~--7-9---|
E|-----7-7-9----------------------11---------7-7-9--------6-8-------------|

G|--------------------|
D|-8-8/10-10-12-12-10-|
A|--------------------|
E|--------------------|

End: “Huwag mo nang…”

G|-------------------------------------| Repeat until fade
D|-------------------------------------|
A|---4-4---4-4-6-4----4-4---4-5-7/9-7--|
E|-5-----5----------5-----5------------|





Comments


Popular Eraserheads tabs & chords
Fruitcake 2 Bass Tabs
Minsan Bass Tabs
Hard To Believe 2 Chords
Tindahan Ni Aling Nena Chords
Fruitcake Tabs
Ligaya Tabs
Overdrive Tabs
Saturn Return Ukulele
Spolarium Ukulele
Tindahan Ni Aling Nena Ukulele


Song lyrics



↑ Back to top | Tablatures and chords are parodies/interpretations of the original songs. You may use it for private study, scholarship, research or language learning purposes only
© 2014 AZChords.com Contact us | Privacy policy | DMCA | Add/correct tabs | Request tabs | Top 50 tabs