>
 >
Alapaap 2

Alapaap 2 Guitar Tabs

Eraserheads - Alapaap 2 chords, tabs, tablatures, lyrics

Guitar lessons | Add/correct | Request | Top 50 tabs Artists:  A B C D E F G H I J K L M N O P Q R S T U V W X Y Z 0-9

Alapaap 2 Guitar Tabs – Eraserheads

CD, Sheet music, Poster

Do you like Alapaap 2? Share with your friends now
Bass TabsBass Tabs v2Bass Tabs v3Bass Tabs v4Bass Tabs v5ChordsChords v2Chords v3TabsTabs v2Tabs v3Ukulele
-----------------------------------------------------------------------------
ALAPAAP - Eraserheads
-----------------------------------------------------------------------------

Tuning: Standard

Intro:

E|--------------------------------------------------------------------|
B|--------------------------------------------------------------------|
G|--------------------------------------------------------------------|
D|-------4-4h5-4----------4-4h5-4----------4-4h5-4----------4-4h5-4---|
A|-----5---------5------5---------5------5---------5------5---------5-|
E|-3-3--------------3-3--------------3-3--------------3-3-------------|

“May isang umaga na tayo’y magsasama…”

E|-2---2----1h2p1---------1h2p1---------1h2p1--------1h2p1----|
B|-3-3---2--------2-------------2-------------2-2----------1~-|
G|-4----------------0-2~----------0---------------0-----------|
D|----------------------------------3~------------------------|
A|------------------------------------------------------------|
E|------------------------------------------------------------|

“Hayan at halina sa alapaap…”

E|-0---------------0--2---2--2-2h3p2--------2--2h3p2-----------|
B|-0--4/5\4-----3--1--3-3------------0-3----3--------0-3----1~-|
G|-0----------4----0--4------------------2--4------------2--2~-|
D|----------5-----------------------------------------------3~-|
A|-------------------------------------------------------------|
E|-------------------------------------------------------------|

Verse: “Hanggang sa dulo ng mundo…”

E|----------------------------------------5---| Repeat this tab four times
B|-------8----------5----------7--------------| then…
G|---7-----7----5-----5----7-----7----7-----7-|
D|-5---5------5---5------7---7------5---5-----|
A|--------------------------------------------|
E|--------------------------------------------|

Chorus: “Masdan mo aking mata…”

E|-------------------------------------------------|
B|-8-8-8-8--10-10-10-10-12-12-12-12-14-14-14-15\14-|
G|-7-7-7-7--9--9--9--9--11-11-11-11-13-13-13-13----|
D|-5-5-5-5--7--7--7--7--9--9--9--9--10-10-10-10----|
A|-------------------------------------------------|
E|-------------------------------------------------|

“Ako ngayo’y lumilipad at nasa langit na…”

E|-----------------------------------------------------------------|
B|-8-8-8-8--6-6-6-6--4-4-4-4--6-6-6-6--15-15-15-15-15-15-15-15--13-|
G|-7-7-7-7--5-5-5-5--3-3-3-3--5-5-5-5--14-14-14-14-14-14-14-14--12-|
D|-5-5-5-5--3-3-3-3--2-2-2-2--3-3-3-3--12-12-12-12-12-12-12-12--10-|
A|-----------------------------------------------------------------|
E|-----------------------------------------------------------------|

Verse: “Hindi mo na kailangan ang matago’t mahiya…”

E|----------------------------------5-5-5-5-5-5-5-5-| Repeat this tab twice
B|-------8----------5----------7----8-8-8-8-8-8-8-8-| then…
G|---7-----7----5-----5----7-----7--7-7-7-7-7-7-7-7-| Repeat Chorus then…
D|-5---5------5---5------7---7------5-5-5-5-5-5-5-5-|
A|--------------------------------------------------|
E|--------------------------------------------------|

Bridge:

E|---------5~---------------0-0-0-0-0--0-0-0-0-0--0-0-0-0-0--0-0-0-0--0-0-0-|
B|-6~--8~--5~--10~--6~--8~--5-5-5-5-5--5-5-5-5-5--7-7-7-7-7--9-9-9-9--5-5-5-|
G|-5~--7~--5~--9~---5~--7~--6-6-6-6-6--6-6-6-6-6--7-7-7-7-7--9-9-9-9--6-6-6-|
D|-3~--5~--5~--7~---3~--5~--7-7-7-7-7--6-6-6-6-6--7-7-7-7-7--9-9-9-9--7-7-7-|
A|--------------------------------------------------------------------------|
E|--------------------------------------------------------------------------|

E|-0-0--0-0-0-0-0--0-0-0-0-0--0-0-0-0--0-0-0-0-0-0-0-0--0-0-0-0-0-0-0-0--0-|
B|-5-5--5-5-5-5-5--7-7-7-7-7--9-9-9-9--5-5-5-5-5-5-5-5--3-3-3-3-3-3-3-3--5-|
G|-6-6--6-6-6-6-6--7-7-7-7-7--9-9-9-9--5-5-5-5-5-5-5-5--4-4-4-4-4-4-4-4--5-|
D|-7-7--6-6-6-6-6--7-7-7-7-7--9-9-9-9--5-5-5-5-5-5-5-5--4-4-4-4-4-4-4-4--5-|
A|-------------------------------------------------------------------------|
E|-------------------------------------------------------------------------|

E|-0-0-0-0-0-0-0--0-0-0-0-0-0-0-0--0-0-0-0-0-0-0-0--0-0-0-0-0-0-0-0--0-0-0-|
B|-5-5-5-5-5-5-5--3-3-3-3-3-3-3-3--5-5-5-5-5-5-5-5--4-4-4-4-4-4-4-4--7-7-7-|
G|-5-5-5-5-5-5-5--4-4-4-4-4-4-4-4--5-5-5-5-5-5-5-5--4-4-4-4-4-4-4-4--7-7-7-|
D|-5-5-5-5-5-5-5--4-4-4-4-4-4-4-4--5-5-5-5-5-5-5-5--4-4-4-4-4-4-4-4--7-7-7-|
A|-------------------------------------------------------------------------|
E|-------------------------------------------------------------------------|

E|-0-0-0-0-0-0-0-| Repeat Verse 1 then…
B|-7-7-7-7-7-7-7-| Repeat Chorus except last line then…
G|-7-7-7-7-7-7-7-|
D|-7-7-7-7-7-7-7-|
A|---------------|
E|---------------|

“Gusto mo bang… (Gusto mo bang…)”

E|--------------------------------------------------| Repeat this tab seven
B|-15-15-15-15-15-15-15-15--13-13-13-13-13-13-13-13-| times then…
G|-14-14-14-14-14-14-14-14--12-12-12-12-12-12-12-12-|
D|-12-12-12-12-12-12-12-12--10-10-10-10-10-10-10-10-|
A|--------------------------------------------------|
E|--------------------------------------------------|

“Gusto mo bang… sumama?”



E|------------------------------------------------------------------------|
B|-15-15-15-15-15-15-15-15--13--------------------------------------------|
G|-14-14-14-14-14-14-14-14--12--------------------------------------------|
D|-12-12-12-12-12-12-12-12--10--------4-4h5-4----------4-4h5-4----------4-|
A|----------------------------------5---------5------5---------5------5---|
E|------------------------------3-3--------------3-3--------------3-3-----|

E|----------7~-|
B|----------7~-|
G|----------7~-|
D|-4h5-4----9~-|
A|-------5-----|
E|-------------|





Comments


Popular Eraserheads tabs & chords
Huling El Bimbo 2 Bass Tabs
Magasin Bass Tabs
Fine Time 1 Chords
Minsan 1 Chords
Santa Aint Comin No Mo Chords
Toyang Chords
Bogchi Hokbu Tabs
Kailan Ukulele
Manila Ukulele
Spoplarium Ukulele


Song lyrics



↑ Back to top | Tablatures and chords are parodies/interpretations of the original songs. You may use it for private study, scholarship, research or language learning purposes only
© 2014 AZChords.com Contact us | Privacy policy | DMCA | Add/correct tabs | Request tabs | Top 50 tabs