» » »

Alapaap Bass tabs (ver.1)

Artists:  A B C D E F G H I J K L M N O P Q R S T U V W X Y Z # 

Alapaap Bass tabs (ver.1)

Eraserheads
Rating:
0/5 (0 votes)

Hard to play? Try these video lessons and learn fast.
                (Intro)
Band:Eraserheads


Intro:
Gb|--------------|--------------|--------------|--------------|
Db|------4-4h5---|------4-4h5---|------4-4h5---|------4-4h5---|
Ab|----5-------5-|----5-------5-|----5-------5-|----5-------5-|
Eb|-33-----------|-33-----------|-33-----------|-33-----------|


Verse I:
Gb|---------11-11h12----|---------11-11h12----|---------11-11h12----|----------11-11h12----|
Db|------12----------12-|------12----------12-|------12----------12-|-------12----------12-|
Ab|-1010----------------|-1010----------------|-1010----------------|-10-10----------------|
Eb|---------------------|---------------------|---------------------|----------------------|

Gb|---------11-11h12----|---------11-11h12----|---------11-11h12----|----------11-11h12----|
Db|------12----------12-|------12----------12-|------12----------12-|-------12----------12-|
Ab|-1010----------------|-1010----------------|-1010----------------|-10-10----------------|
Eb|---------------------|---------------------|---------------------|----------------------|

Gb|---------16-16h17----|---------16-16h17----|---------16-16h17----|----------16-16h17----|
Db|------17----------17-|------17----------17-|------17----------17-|-------17----------17-|
Ab|-1515----------------|-1515----------------|-1515----------------|-15-15----------------|
Eb|---------------------|---------------------|---------------------|----------------------|

Gb|---------11-11h12----|---------11-11h12----|---------11-11h12----|----------11-11h12----|
Db|------12----------12-|------12----------12-|------12----------12-|-------12----------12-|
Ab|-1010----------------|-1010----------------|-1010----------------|-10-10----------------|
Eb|---------------------|---------------------|---------------------|----------------------|

Gb|---------11-11h12----|---------11-11h12----|---------11-11h12----|----------11-11h12----|
Db|------12----------12-|------12----------12-|------12----------12-|-------12----------12-|
Ab|-1010----------------|-1010----------------|-1010----------------|-10-10----------------|
Eb|---------------------|---------------------|---------------------|----------------------|

Gb|-----|
Db|-----|
Ab|-----|
Eb|-1~--|

Intro at Verse I tab,
            
Hard to play? Try these video lessons and learn fast. | Correct




comments powered by Disqus
↑ Back to top | Tablatures and chords are parodies/interpretations of the original songs. You may use it for private study, scholarship, research or language learning purposes only