» » »

Eraserheads, Alapaap Tabs (ver.3)

Artists:  A B C D E F G H I J K L M N O P Q R S T U V W X Y Z # 

Alapaap Tabs (ver.3)

Eraserheads Tabs
Rating:
4/5 (7 votes)
Alapaap lessons Tabs too difficult? Try these video lessons and learn fast
                -----------------------------------------------------------------------------
			     Alapaap - Eraserheads
-----------------------------------------------------------------------------


Tuning: standard

Intro
e|---------------------------------------------------------------------------|
B|---------------------------------------------------------------------------|
G|---------------------------------------------------------------------------|
D|------------------3-3h4-3--------4x----------------------------------------|
A|-bass part------4---------4------------------------------------------------|
E|------------2-2------------------------------------------------------------|

Stanza:

(Bass part)
e|---------------------------------------------------------------------------|
B|---------------------------------------------------------------------------|
G|--------------------------------------------3-3h4-3------------------------|
D|------------------3-3h4-3-------(8x)------4---------4----4x----------------|
A|-bass part------4---------4-----------2-2----------------------------------|
E|------------2-2------------------------------------------------------------|
					      B
e|------------------------------------------22-------------------------------|
B|------------------------------------------44-------------------------------|
G|------------------------------------------44-------------------------------|
D|------------------3-3h4-3-------8x--------44-------------------------------|
A|-bass part------4---------4---------------22-------------------------------|
E|------------2-2------------------------------------------------------------|

(Lead part)
e|-------------------------------------------6-6h7-6-------------------------|
B|-----------------6-6h7-6-----------------7----------7----4x----------------|
G|---------------6---------6-----8x----4-4-----------------------------------|
D|-lead part-4-4-------------------------------------------------------------|
A|---------------------------------------------------------------------------|
E|---------------------------------------------------------------------------|
 					     B
e|-----------------------------------------22--------------------------------|
B|-----------------6-6h7-6-----------------44--------------------------------|
G|---------------6---------6------8x-------44--------------------------------|
D|-lead part-4-4---------------------------44--------------------------------|
A|-----------------------------------------22--------------------------------|
E|---------------------------------------------------------------------------|

Verse: (4x)

Lead part
e|------2----2-----4----4---------1----1-----------1-------------------------|
B|-----2--2-------4--4-----------2--2-----------4---4-4----------------------|
G|----3----3-----4----4---------3----3---------4-4---4-----------------------|
D|--------------------------------------------------------(4x)---------------|
A|----------------------------1--------------2-------------------------------|
E|--2-----------4------------------------------------------------------------|
    F#         Ab             Bbm            B

Rhythm part
e|--22-----44-----66-----77--------------------------------------------------|
B|--22-----44-----66-----77--------------------------------------------------|
G|--33-----44-----66-----88--------------(4x)--------------------------------|
D|--44-----66-----88-----99--------------------------------------------------|
A|--44-----66-----88-----99--------------------------------------------------|
E|--22-----44-----66-----77--------------------------------------------------|
    F#     Ab     Bbm    B

Refrain
e|--22-----44-----66-----77-----------44------22-----------------------------|
B|--22-----44-----66-----77-----------66------44-----------------------------|
G|--33-----44-----66-----88----(2x)---66------44--break----------------------|
D|--44-----66-----88-----99-----------66------44-----------------------------|
A|--44-----66-----88-----99-----------44------22-----------------------------|
E|--22-----44-----66-----77--------------------------------------------------|
    F#     Ab     Bbm    B            C#      B

Verse: (repeat chords)
Refrain: (repeat chords)

Interlude
e|-------22---22---44---------------22---------------------------------------|
B|-------22---44---44---------------22---------------------------------------|
G|--11---33---44---44-----------11--33---------------------------------------|
D|--22---44---44---66-----------22--44---------------------------------------|
A|--22---44---22---66-----------22--44---------------------------------------|
E|--00---22--------44-----------00--22---------------------------------------|
    E    F#   B    Abm          E   F#

e|--44---33---44---66---------44---33---44---66------------------------------|
B|--44---44---66---88---------44---44---66---88------------------------------|
G|--55---55---66---88---------55---55---66---88------------------------------|
D|--66---55---66---88---------66---55---66---88------------------------------|
A|--66---33---44---66---------66---33---44---66------------------------------|
E|--44------------------------44---------------------------------------------|
    Ab   Cm   C#   Eb         Ab   Cm   C#   Eb

e|--22---11---22---11--------22---33---44------------------------------------|
B|--44---22---44---22--------44---44---66------------------------------------|
G|--44---33---44---33--------44---55---66------------------------------------|
D|--44---33---44---33--------44---55---66---break----------------------------|
A|--22---11---22---11--------22---33---44------------------------------------|
E|---------------------------------------------------------------------------|
    B   Bbm   B    Bbm       B    Cm    C#

Verse:
Refrain (after refrain repeat chords)

e|--44---22------------------------------------------------------------------|
B|--66---44------------------------------------------------------------------|
G|--66---44------------------------------------------------------------------|
D|--66---44-----(8x)---------------------------------------------------------|
A|--44---22------------------------------------------------------------------|
E|---------------------------------------------------------------------------|

Outro
e|--------------------------------------------22-----------------------------|
B|--------------------------------------------22-----------------------------|
G|--------------------------------------------55-----------------------------|
D|------------------3-3h4-3--------4x---------44---break---------------------|
A|-bass part------4---------4-----------------44-----------------------------|
E|------------2-2-----------------------------22-----------------------------|
            

comments powered by Disqus
↑ Back to top | Eraserheads Tabs for Alapaap. Lyrics for acoustic guitar and electric guitar. Tablatures and chords are parodies/interpretations of the original songs. You may use it for private study, scholarship, research or language learning purposes only