» » »

Elvenking, The Divided Heart Tabs (ver.3)

Artists:  A B C D E F G H I J K L M N O P Q R S T U V W X Y Z # 

The Divided Heart Tabs (ver.3)

Elvenking Tabs
 Rating:
4/5 (4 votes)
The Divided Heart lessons Tabs too difficult? Try these video lessons and learn fast
                
Hey guys it's pretty much the whole thing now (including the solo), fixed some 
mistakes and even added some parts in so enjoy :)

At the end of Romance And Wrath
E--3-----|  |--1-----|  |--4-----|  |--1-----|  |--3-----|  |--3-----|
B----4---|  |----3---|  |----4---|  |----3---|  |----4---|  |----4---|
G------5-|  |------3-|  |------5-|  |------3-|  |------5-|  |------5-|
D--------|  |--------|  |--------|  |--------|  |--------|  |--------|
A--------|x5|--------|x5|--------|x3|--------|x3|--------|x3|--------|
E--------|  |--------|  |--------|  |--------|  |--------|  |--------| 
                                                        Strum last chord
Intro
Slide in
E|-------------------------------------------------------------------|
B|-------------------------------------------------------------------|
G|-12-10-12-10-12-8--10-12-10-12--15-13-12-10--8-10-8-12-10-10-8-10--|
D|-------------------------------------------------------------------|
A|-------------------------------------------------------------------|
D|-------------------------------------------------------------------|

E|------------------------------------------------------------------|
B|------------------------------------------------------------------|
G|-15-13-12-13-12-8--8-10-12-10-8-10--10-12-13-12--12-10-8-10--8b~--|
D|------------------------------------------------------------------|
A|------------------------------------------------------------------|
D|------------------------------------------------------------------|

Verse
This is the quiet bit in the background during the verse
E|------------------------18~-16-18-16----------------------------------|
B|-16~--16-20-18-20-16b~---------------16~--16-20-18-16-18-16----16-----|
G|------------------------------------------------------------19----17--|
D|----------------------------------------------------------------------|
A|----------------------------------------------------------------------|
D|----------------------------------------------------------------------|

E|-----------------------|
B|-----------------------|
G|-----------------------|
D|-1~--8~--6~--8-8--8-8--|
A|-1~--8~--6~--8-8--8-8--|
D|-1~--8~--6~--8-8--8-8--|

Chorus
E|-------------------------------------------------------------------|
B|-------------------------------------------------------------------|
G|-12-10-12-10-12-8--10-12-10-12--15-13-12-10--8-10-8-12-10-10-8-10--|
D|-------------------------------------------------------------------|
A|-------------------------------------------------------------------|
D|-------------------------------------------------------------------|

E|-------------------------------------------------------------|
B|-------------------------------------------------------------|
G|-15-13-12-13-12-8--8-10-12-10-8-10--10-12-13-12--12-10-8-10--|
D|-------------------------------------------------------------|
A|-------------------------------------------------------------|
D|-------------------------------------------------------------|

Verse
E|----------------------------------------|
B|----------------------------------------|
G|-5-x14-----------------5-x7-3-3-3-3--3--|
D|-5-----3-x14-6-x7-8-x7-5----3-3-3-3--3--|
A|-3-----3-----6----8----3----1-1-1-1--1--|
D|-------3-----6----8---------------------|
Palm muting

E|--------------------------------|
B|--------------------------------|
G|-5-x14-----------------5-x7-3~--|
D|-5-----3-x14-6-x7-8-x7-5----3~--|
A|-3-----3-----6----8----3----1~--|
D|-------3-----6----8-------------|
Palm muting

E|---------------------------|
B|---------------------------|
G|---------------------------|
D|-1-1-1--8-8-8--6-6-6--6-8--|
A|-1-1-1--8-8-8--6-6-6--6-8--|
D|-1-1-1--8-8-8--6-6-6--6-8--|

E|-----------------------|
B|-----------------------|
G|-----------------------|
D|-1~--8~--6~--8-8--8-8--|
A|-1~--8~--6~--8-8--8-8--|
D|-1~--8~--6~--8-8--8-8--|

Chorus
E|-------------------------------------------------------------------|
B|-------------------------------------------------------------------|
G|-12-10-12-10-12-8--10-12-10-12--15-13-12-10--8-10-8-12-10-10-8-10--|
D|-------------------------------------------------------------------|
A|-------------------------------------------------------------------|
D|-------------------------------------------------------------------|

E|-------------------------------------------------------------------|
B|-------------------------------------------------------------------|
G|--15-13-12-13-12-8--8-10-12-10-8-10--10-12-13-12--12-10-8-10--15b--|
D|-------------------------------------------------------------------|
A|-------------------------------------------------------------------|
D|-------------------------------------------------------------------|

E|-----18^-18^-18^--|
B|------------------|
G|-15b--------------|
D|------------------|
A|------------------|
D|------------------|
After that second bit there's this bending part

E|-------------------------------------------------------------------|
B|-------------------------------------------------------------------|
G|-12-10-12-10-12-8--10-12-10-12--15-13-12-10--8-10-8-12-10-10-8-10--|
D|-------------------------------------------------------------------|
A|-------------------------------------------------------------------|
D|-------------------------------------------------------------------|

E|-------------------------------------------------------------|
B|-------------------------------------------------------------|
G|-15-13-12-13-12-8--8-10-12-10-8-10--10-12-13-12--12-10-8-10--|
D|-------------------------------------------------------------|
A|-------------------------------------------------------------|
D|-------------------------------------------------------------|

E|--------------------------------------------------------------|
B|--------------------------------------------------------------|
G|---------5~---------------------------------------------------|
D|-6~--3~--5~--x-x-8--6~--6~--6-6-6-6-6-6-6-6--8-8-8-8-8-8-8-8--|
A|-6~--3~--3~--x-x-8--6~--6~--6-6-6-6-6-6-6-6--8-8-8-8-8-8-8-8--|
D|-6~--3~------x-x-8--6~--6~--6-6-6-6-6-6-6-6--8-8-8-8-8-8-8-8--|
                                          Palm muting
Solo
E|--------------------------------------------------------------|
B|--------------------------------------------------------------|
G|-8-----7---------8-----7-8-12-10-8-7-8b---7-8-12-10--7-8-7-8--|
D|---8-8---8-8-8-8---8-8----------------------------------------|
A|--------------------------------------------------------------|
D|--------------------------------------------------------------|

E|-----------------------------------------|
B|-----------------------------------------|
G|-17b-12h13-15--12h13-20-16h17-19--16h17--|
D|-----------------------------------------|
A|-----------------------------------------|
D|-----------------------------------------|

E|-11-10-13-10-11-10----10-11-10-13-10-11-10----10--|
B|-------------------11----------------------11-----|
G|--------------------------------------------------|
D|--------------------------------------------------|
A|--------------------------------------------------|
D|--------------------------------------------------|

E|-11-10-13-10-11-10----10-11-10-13-10-11-10-----|
B|-------------------11----------------------11--|
G|-----------------------------------------------|
D|-----------------------------------------------|
A|-----------------------------------------------|
D|-----------------------------------------------|

E|-15-16-15-13-15-20-15-13-15-16-15-13-15-20-15-13--|
B|--------------------------------------------------|
G|--------------------------------------------------|
D|--------------------------------------------------|
A|--------------------------------------------------|
D|--------------------------------------------------|

E|-15-16-15-13-15-20-15-13----------|
B|-------------------------16--14^--|
G|----------------------------------|
D|----------------------------------|
A|----------------------------------|
D|----------------------------------|

E|----10-11-15-16-18-16--15-13--18^--|
B|-11--------------------------------|
G|-----------------------------------|
D|-----------------------------------|
A|-----------------------------------|
D|-----------------------------------|

E|-18-16-15----------18^-18-16-15-15-16-15-------|
B|----------18-16-15-----------------------16b~--|
G|-----------------------------------------------|
D|-----------------------------------------------|
A|-----------------------------------------------|
D|-----------------------------------------------|

E|----15-16-18-16-15----15-16-15------------------------------------------|
B|-16----------------16----------16-18-16-15------------------------------|
G|-------------------------------------------15-17-15-13------------------|
D|-------------------------------------------------------15-17-15-13------|
A|-------------------------------------------------------------------15~--|
D|------------------------------------------------------------------------|
End of solo

E|-----------------------------9---------------------------------|
B|-11-9-11-9-11----9-11-9-11-----12-11-9b-----9----11-9-9-----9--|
G|--------------11-------------------------11---11---------11----|
D|---------------------------------------------------------------|
A|---------------------------------------------------------------|
D|---------------------------------------------------------------|

E|-9-------------------------------------------------------------|
B|---12-11-12-11--------9-11-9----9--9-11-12-11b--11-9-----------|
G|---------------11--11--------11----------------------11-10b----|
D|---------------------------------------------------------------|
A|---------------------------------------------------------------|
D|---------------------------------------------------------------|
That's about it guys
            
Submit corrections

comments powered by Disqus
↑ Back to top | Elvenking Tabs for The Divided Heart. Lyrics for acoustic guitar and electric guitar. Tablatures and chords are parodies/interpretations of the original songs. You may use it for private study, scholarship, research or language learning purposes only