» » »

Elvenking, The Divided Heart Tabs (ver.1)

Artists:  A B C D E F G H I J K L M N O P Q R S T U V W X Y Z # 

The Divided Heart Tabs (ver.1)

Elvenking Tabs
Rating:
0/5 (0 votes)
The Divided Heart lessons Tabs too difficult? Try these video lessons and learn fast
                too tab like the whole thing but now ive got most of the song tabbed so enjoy :P

Intro
E|-------------------------------------------------------------------------|
B|-------------------------------------------------------------------------|
G|--12-10-12-10-12-8--10-12-10-12--15-13-12-10--8-10-8-12-10-10-8-10-------|
D|-------------------------------------------------------------------------|
A|-------------------------------------------------------------------------|
D|-------------------------------------------------------------------------|

E|-------------------------------------------------------------------------|
B|-------------------------------------------------------------------------|
G|--15-13-12-13-12-8--8-10-12-10-8-10--10-12-13-12--12-10-8-10--8b~--------|
D|-------------------------------------------------------------------------|
A|-------------------------------------------------------------------------|
D|-------------------------------------------------------------------------|

Verse
E|------------------------|
B|------------------------|
G|------------------------|
D|--1~--8~--6~--8-8--8-8--|
A|--1~--8~--6~--8-8--8-8--|
D|--1~--8~--6~--8-8--8-8--|

Chorus
E|-------------------------------------------------------------------------|
B|-------------------------------------------------------------------------|
G|--12-10-12-10-12-8--10-12-10-12--15-13-12-10--8-10-8-12-10-10-8-10-------|
D|-------------------------------------------------------------------------|
A|-------------------------------------------------------------------------|
D|-------------------------------------------------------------------------|

E|-------------------------------------------------------------------------|
B|-------------------------------------------------------------------------|
G|--15-13-12-13-12-8--8-10-12-10-8-10--10-12-13-12--12-10-8-10-------------|
D|-------------------------------------------------------------------------|
A|-------------------------------------------------------------------------|
D|-------------------------------------------------------------------------|

Verse
E|-----------------------------------------|
B|-----------------------------------------|
G|--5-x14-----------------5-x7-------------|
D|--5-----3-x14-6-x7-8-x7-5----8--8-8-8-8--|
A|--3-----3-----6----8----3----8--8-8-8-8--|
D|--------3-----6----8---------8--8-8-8-8--|


E|--------------------------------|
B|--------------------------------|
G|--5-x14-----------------5-x7----|
D|--5-----3-x14-6-x7-8-x7-5----8--|
A|--3-----3-----6----8----3----8--|
D|--------3-----6----8---------8--|


E|--------------------------|
B|--------------------------|
G|--------------------------|
D|--1-1-1--8-8-8--6-6-6--6-8|
A|--1-1-1--8-8-8--6-6-6--6-8|
D|--1-1-1--8-8-8--6-6-6--6-8|

E|------------------------|
B|------------------------|
G|------------------------|
D|--1~--8~--6~--8-8--8-8--|
A|--1~--8~--6~--8-8--8-8--|
D|--1~--8~--6~--8-8--8-8--|

Chorus
E|-------------------------------------------------------------------------|
B|-------------------------------------------------------------------------|
G|--12-10-12-10-12-8--10-12-10-12--15-13-12-10--8-10-8-12-10-10-8-10-------|
D|-------------------------------------------------------------------------|
A|-------------------------------------------------------------------------|
D|-------------------------------------------------------------------------|


E|----------------------------------------------------------------|
B|----------------------------------------------------------------|
G|--15-13-12-13-12-8--8-10-12-10-8-10--10-12-13-12--12-10-8-10----|
D|----------------------------------------------------------------|
A|----------------------------------------------------------------|
D|----------------------------------------------------------------|

E|------18^-18^-18^--|
B|-------------------|
G|--15B--------------|
D|-------------------|
A|-------------------|
D|-------------------|

E|-------------------------------------------------------------------------|
B|-------------------------------------------------------------------------|
G|--12-10-12-10-12-8--10-12-10-12--15-13-12-10--8-10-8-12-10-10-8-10-------|
D|-------------------------------------------------------------------------|
A|-------------------------------------------------------------------------|
D|-------------------------------------------------------------------------|

E|-------------------------------------------------------------------------|
B|-------------------------------------------------------------------------|
G|--15-13-12-13-12-8--8-10-12-10-8-10--10-12-13-12--12-10-8-10-------------|
D|-------------------------------------------------------------------------|
A|-------------------------------------------------------------------------|
D|-------------------------------------------------------------------------|

E|--------------------------------------------------------------|
B|---------------------------------------------------------------|
G|----------5~---------------------------------------------------|
D|--6~--3~--5~--x-x-8--6~--6~--6-6-6-6-6-6-6-6--8-8-8-8-8-8-8-8--|
A|--6~--3~--3~--x-x-8--6~--6~--6-6-6-6-6-6-6-6--8-8-8-8-8-8-8-8--|
D|--6~--3~------x-x-8--6~--6~--6-6-6-6-6-6-6-6--8-8-8-8-8-8-8-8--|

Solo
E|-----------------------------------------------------------------------|
B|-----------------------------------------------------------------------|
G|--8-0-0-7-0-0-0-8-0-0-0-0-0-0-0-7-8-12-10-8-7-8b---7-8-12-10--7-8-7-8--|
D|-----------------------------------------------------------------------|
A|-----------------------------------------------------------------------|
D|-----------------------------------------------------------------------|

E|---------------------------------------------------------------------|
B|---------------------------------------------------------------------|
G|--17b-12h13-15--12h13-20-16h17-19--16h17-20p19p17-20p19p17-20p19p17--|
D|---------------------------------------------------------------------|
A|---------------------------------------------------------------------|
D|---------------------------------------------------------------------|
 And thats all ive figured out of the solo :(
            
Submit corrections

comments powered by Disqus
↑ Back to top | Elvenking Tabs for The Divided Heart. Lyrics for acoustic guitar and electric guitar. Tablatures and chords are parodies/interpretations of the original songs. You may use it for private study, scholarship, research or language learning purposes only