» » »

Elvenking, The Divided Heart Tabs (ver.2)

Artists:  A B C D E F G H I J K L M N O P Q R S T U V W X Y Z # 

The Divided Heart Tabs (ver.2)

Elvenking Tabs
Rating:
0/5 (0 votes)
The Divided Heart lessons Tabs too difficult? Try these video lessons and learn fast
                (Intro)
Intro
e|-------------------------|
B|-------------------------|
G|-------------------------|
D|-------------------------|
A|----x/-\-----------------|
E|----x/-\-----------------|
Slide up and down neck

Guitar 1
|----------------------------------------------------------------------|
|----------------------------------------------------------------------|
|----------------------------------------------------------------------|
|--5-5-5-5-5-5-5-5-5-5-------3-3-3-3-3-3-3-3-3-3-----------------------|
|--3-3-3-3-3-3-3-3-3-3-3-3-X-1-1-1-1-1-1-1-1-1-1-1-1-1-6-6-6-6-6-6-6-6-|
|----------------------1-1-X---------------------1-1-1-4-4-4-4-4-4-4-4-|

Guitar 2 / Violin
|------------------------6---------------------------6--------|
|--8-6-8-6-8---6-8---6-8---9-8-6-----6---8-6-6-----6~--9-8-9--|
|------------8---------------------8---8---------8------------|
|-------------------------------------------------------------|
|-------------------------------------------------------------|
|-------------------------------------------------------------|

Guitar 1
|-----------------------------------------|
|-----------------------------------------|
|-----------------------------------------|
|--------------------5~-3-3-3-3-3-3-3-3-3-|
|--8-8-8-8-8-8-8-8---3~-1-1-1-1-1-1-1-1-1-|
|--6-6-6-6-6-6-6-6------------------------|
PM                                             . . . . . . . .

Guitar 2 / Violin
|-------------------------------------------|
|--8-------6-8-6~----6~-6-8-9-8~--8-6-------|
|----8~--8---------8------------------8/10~-|
|-------------------------------------------|
|-------------------------------------------|
|-------------------------------------------|

Guitar 1
|--------------------------------------------------------------------|
|--------------------------------------------------------------------|
|--------------------------------------------------------------------|
|--5-5-5-5-5-5-5-5-5-5-----3-3-3-3-3-3-3-3-3-3-----------------------|
|--3-3-3-3-3-3-3-3-3-3-3-3-1-1-1-1-1-1-1-1-1-1-1-1-1-6-6-6-6-6-6-6-6-|
|----------------------1-1---------------------1-1-1-4-4-4-4-4-4-4-4-|

Guitar 2 / Violin
|------------------------6---------------------------6--------|
|--8-6-8-6-8---6-8---6-8---9-8-6-----6---8-6-6-----6~--9-8-9--|
|------------8---------------------8---8---------8------------|
|-------------------------------------------------------------|
|-------------------------------------------------------------|
|-------------------------------------------------------------|
Guitar 1
|--------------------------------------------------------|
|--------------------------------------------------------|
|----------------------------------------- --------------|
|--------------------5~-3~-------------------------------|
|--8-8-8-8-8-8-8-8---3~-1~-------------------------//6~~-|
|--6-6-6-6-6-6-6-6---------------------------------------|

Guitar 2 / Violin
|--------------------------------------------------------|
|--8-------6-8-6~----6~-6-8-9-8~--8-6--------------------|
|----8~--8---------8------------------8/10~----------8~--|
|--------------------------------------------------------|
|--------------------------------------------------------|
|--------------------------------------------------------|

This is my second tab, please be generous. I will have the rest of the song soon.
            
Submit corrections

comments powered by Disqus
↑ Back to top | Elvenking Tabs for The Divided Heart. Lyrics for acoustic guitar and electric guitar. Tablatures and chords are parodies/interpretations of the original songs. You may use it for private study, scholarship, research or language learning purposes only