» » »

Eighteen Visions, Victim Tabs (ver.3)

Artists:  A B C D E F G H I J K L M N O P Q R S T U V W X Y Z # 

Victim Tabs (ver.3)

Eighteen Visions Tabs
 Rating:
4/5 (9 votes)
Victim lessons Tabs too difficult? Try these video lessons and learn fast
                Intro:

1|-----------------|-----------------|
2|-----------------|-----------------|
3|-----------------|-----------------|
4|-9-9-9-7-7-2-2-2-|-2-2-2-2-2-4-4-9-|
5|-9-9-9-7-7-2-2-2-|-2-2-2-2-2-4-4-9-|
6|-7-7-7-5-5-0-0-0-|-0-0-0-0-0-2-2-7-|

(All 8th notes.)


Verse:

1|-------|-----------|---------|---------|
2|-------|-----------|---------|---------|
3|-------|-----------|---------|---------|
4|-------|-------7-7-|-7-7/9---|-4-4-2-2-|
5|-7-7/9-|-9-7-7-5-5-|-5-5/7-7-|-4-4-2-2-|
6|-5-5/7-|-7-5-5-----|-------0-|-2-2-0-0-|

(Check the song for rhythm.)


Chorus:
(It's the same as the intro.)


Bridge between interlude and vocals/drums only chorus:

1|---------------------------------|
2|---------------------------------|
3|---------------------------------|
4|---------------------------------|
5|---------------------------------|
6|-x-x-x-x-x-x-x-x-x-x-x-x-x-x-x-x-|

(All 16th notes.)


I couldn't figure out the interlude or the lead part from the first verse/last chorus. Sorry.
            
Submit corrections

comments powered by Disqus
↑ Back to top | Eighteen Visions Tabs for Victim. Lyrics for acoustic guitar and electric guitar. Tablatures and chords are parodies/interpretations of the original songs. You may use it for private study, scholarship, research or language learning purposes only