» » »

Victim Tabs (ver.1)

Artists:  A B C D E F G H I J K L M N O P Q R S T U V W X Y Z # 

Victim Tabs (ver.1)

Eighteen Visions
Rating:
2/5 (2 votes)

Hard to play? Try these video lessons and learn fast.
                Okay so i've seen alot of sh*t ass tabs for Victim. It's not in standard, it's in drop
some stuffs just ridiculous. So here's the actual tab for it. 18v for life.

Eighteen Visions - Victim

                         Intro

e|--------------------------------------------------------------------------|
B|--------------------------------------------------------------------------|
G|--------------------------------------------------------------------------|
D|--------------------------------------------------------------------------|
A|--------------------------------------------------------------------------|
E|0000000000000000000000000000000000000000000000000000000000000000----------|
 For this move your pick and thumb along the string as if you were doing an open pinch
makes a cool effect, think black label society - stillborn intro sound. Also emphasise
odd note every so often by striking the open chord.

                Intro riff after "1 2 3 GO!"

e|---------------------------------------------------------------------------|
B|---------------------------------------------------------------------------|
G|--5---------------------5--------------------------------------------------|
D|0-5-5-7-0------------0--5--5-----------------------------------------------|
A|0-3-5-7-0------------0--3--5-----------------------------------------------|
E|0---5-7-0------------0-----5---5-0-3-0-6-5-3h5-----------------------------|
 [play this once][then the riff varies, ^ this bit can be done as chords]
Obv. play each chord more than once, play them as many times as they need to be played,
to the song for the speed n strumming. But yeah. This is the main riff to Victim and
the chorus riff.

                            Verse riff
e|--------------------------------------------------------------------------|
B|--------------------------------------------------------------------------|
G|--------------------------------------------------------------------------|
D|5-7--7-5--10---10-10--5---------------------------------------------------|
A|3-5--5-3--8----8--8---5---------------------------------------------------|
E|----------------------5--------6-5-3h5------------------------------------|
        [Play this twice)

                  Lead guitar comes in during the verse.

e|--------------------------------------------------------------------------|
B|--------------------------------------------------------------------------|
G|------------------------------------------------------------- 14-12-10-9--|
D|12-12--10----------7-7-7----------5-5-5-----3--2--0-0---------------------|
A|10-10--8----5-5-5----------3-3-3-----------------------3h5po--12-10-8-7---|
E|-----------------------------------------3--------------------------------|
Play this twice. I dunno if its right but it sounds good, this goes behind the verse
above. the octave chords are the prechorus, which go after the lead riff has been played twice.

Breakdown "And i feel like im the victim, i feel like im the victim, i feel like i have
criticised (yeah yeah)" etc.

e|-----|
B|-----|
G|-----|
D|0-6--|
A|0-6--|
E|0h6--|Play the open 5 times, for the rhythm listen to the song. evey 6th note, hammer 
6.

 Lil riff after it an before So give me ONE good reason I should be forgivin YOU wi jus 
drums.
e|-----------------------------------------------------------------------------|
B|-----------------------------------------------------------------------------|
G|-----------------------------------------------------------------------------|
D|5--3--0--3--5----------------------------------------------------------------|
A|5--3--0--3--5----------------------------------------------------------------|
E|5--3--0--3--5----------------------------------------------------------------|
[also play this riff after every 3 times you've played the breakdown riff during the
and in the outro after these octave chords]

e|---------------------------------------------------------------------------|
B|---------------------------------------------------------------------------|
G|7-10-14--------------------------------------------------------------------|
D|x-x-xx---------------------------------------------------------------------|
A|5-8-12---------------------------------------------------------------------|
E|---------------------------------------------------------------------------|
Play these chords fast, then the riff above for the closer.


18visions rule.
dan

e|-----------------------------------------------------------------------------|
B|-----------------------------------------------------------------------------|
G|-----------------------------------------------------------------------------|
D|-----------------------------------------------------------------------------|
A|-----------------------------------------------------------------------------|
E|-----------------------------------------------------------------------------|


| /  slide up
| \  slide down
| h  hammer-on
| p  pull-off
| ~  vibrato
| +  harmonic
| x  Mute note
===============================================================================
            
Hard to play? Try these video lessons and learn fast. | Correct




comments powered by Disqus
↑ Back to top | Tablatures and chords are parodies/interpretations of the original songs. You may use it for private study, scholarship, research or language learning purposes only