>
 >
Victim 1

Victim 1 Guitar Tabs

Eighteen Visions - Victim 1 chords, tabs, tablatures, lyrics

Guitar lessons | Add/correct | Request | Top 50 tabs Artists:  A B C D E F G H I J K L M N O P Q R S T U V W X Y Z 0-9

Victim 1 Guitar Tabs – Eighteen Visions

CD, Sheet music, Poster

Do you like Victim 1? Share with your friends now
TabsTabs v2Tabs v3Tabs v4
Eighteen Visions - Victim


Tuning All C and Drop Lowest String to B

Example:

D# |-----------------------------------------------------------------------|
G# |-----------------------------------------------------------------------|
E  |-----------------------------------------------------------------------|
B  |-----------------------------------------------------------------------|
F# |-----------------------------------------------------------------------|
B  |-----------------------------------------------------------------------|

 /  slide up

 \  slide down

 h  hammer-on

 p  pull-off

 ~  vibrato

 +  harmonic

 x  Mute note

Now without further ado......


Intro Riff - Repeat as necessary - 2nd guitar let B ring out shorty
after beginning
|--------------------------------------------------------------------------|
|--------------------------------------------------------------------------|
|--------------------------------------------------------------------------|
|--------------------------------------------------------------------------|
|0000000000000000000000000000000000000000000000000000000000000000----------|
|0000000000000000000000000000000000000000000000000000000000000000----------|

"1 2 3 Go!!!"

1st Riff
|--------------------------------------------------------------------------|
|--------------------------------------------------------------------------|
|--------------------------------------------------------------------------|
|----55--------------------------------------------------------------------|
|000-33-555-555-77-000-----------------------------------------------------|
|000----555-555-77-000-----------------------------------------------------|

2nd Riff - is the same as first with additional hammer on at end
(you do 1st riff followed by 2nd riff and keep alternating) - Repeat both
Riffs (alternating back and fouth between Riff 1 and 2 as necessary......
|--------------------------------------------------------------------------|
|--------------------------------------------------------------------------|
|--------------------------------------------------------------------------|
|----55--------------------------------------------------------------------|
|000-33-555-555-77-0-3h5---------------------------------------------------|
|000----555-555-77-0-3h5---------------------------------------------------|

3rd Riff - "You Can't Be Saved...You've gone and dug your grave"........
|--------------------------------------------------------------------------|
|--------------------------------------------------------------------------|
|-------------5-x5P-0------------------------------------------------------|
|5/7---xx7/10-3-x3P-0------------------------------------------------------|
|3/5---xx5/8----------5-----33-653-----------------------------------------|
|---------------------5-----33-653-----------------------------------------|

4th Riff
|--------------------------------------------------------------------------|
|--------------------------------------------------------------------------|
|-------------5-x5/7-7--7x7\5----------------------------------------------|
|5/7---xx7/10-3-x3/5-5--5x5\3-5--------------------------------------------|
|3/5---xx5/8------------------3--------------------------------------------|
|--------------------------------------------------------------------------|


3rd Riff again
|--------------------------------------------------------------------------|
|--------------------------------------------------------------------------|
|-------------5-x5P-0------------------------------------------------------|
|5/7---xx7/10-3-x3P-0------------------------------------------------------|
|3/5---xx5/8----------5-----33-653-----------------------------------------|
|---------------------5-----33-653-----------------------------------------|

5th Riff - same as 4th Riff but the end is different the plus' are an
artificial harmonic (don't press all the way down on the strings)
on the 5th fret, in which I rake it upwards.
|-------------------------------------+------------------------------------|
|-------------------------------------+------------------------------------|
|-------------5-x5P-0-------99\77\55P-+------------------------------------|
|5/7---xx7/10-3-x3P-0-------77\55\33P-+------------------------------------|
|3/5---xx5/8----------5----------------------------------------------------|
|---------------------5----------------------------------------------------|


Song starts over again from 1st Riff and repeat as necessary alternating from
Riff 1 & 2 (Which is the Chorus Riff)

Then go on to 3rd Riff again - "You through it all away....Still getting High
today".........(Side Notes:  the second time through the song adds what I call
Palm Mute Chunks between some of the sliding notes just listen for it)


Here is another note/example:  this is the end of
Chours Riff which is actually the 1st Riff again cut short;
the second time through the song (it cuts the Riff Short before
going into the Mosh Riff):
|--------------------------------------------------------------------------|
|--------------------------------------------------------------------------|
|--------------------------------------------------------------------------|
|----55--------------------------------------------------------------------|
|000-33-555-0--------------------------------------------------------------|
|000----555-0--------------------------------------------------------------|

Riff 6 - THE MOSH RIFF - (This was difficult to hear because tuning is Drop B so
I did my best to improvise):
|--------------------------------------------------------------------------|
|--------------------------------------------------------------------------|
|--------------------------------------------------------------------------|
|--------------------------------------------------------------------------|
|0xx0xx-3/6--0xx0xx-3/6--0xx0xx-3/6----------------------------------------|
|0xx0xx-3/6--0xx0xx-3/6--0xx0xx-3/6--33333-22222-22------------------------|

Riff 7 (same as Riff 6 but goes to open 0's at the end)
|--------------------------------------------------------------------------|
|--------------------------------------------------------------------------|
|--------------------------------------------------------------------------|
|--------------------------------------------------------------------------|
|0xx0xx-3/6--0xx0xx-3/6--0xx0xx-3/6----------------------------------------|
|0xx0xx-3/6--0xx0xx-3/6--0xx0xx-3/6--00000-00000-00------------------------|

Riff 8 (same as Riff Riff 6 & 7 but the end is different Repeat
as necessary)
|--------------------------------------------------------------------------|
|--------------------------------------------------------------------------|
|--------------------------------------------------------------------------|
|--------------------------------------------------------------------------|
|0xx0xx-3/6--0xx0xx-3/6--0xx0xx-3/6--0-6-3--0-5-3-0-5----------------------|
|0xx0xx-3/6--0xx0xx-3/6--0xx0xx-3/6--0-6-3--0-5-3-0-5----------------------|


Here's the pick and thumb harmonics that lead into the drum and vocal only
parts
|--------------------------------------------------------------------------|
|--------------------------------------------------------------------------|
|--------------------------------------------------------------------------|
|--------------------------------------------------------------------------|
|--------------------------------------------------------------------------|
|0+0+0+0+0+0+0+0+0+0+0+0+0+0+0+0+0+0+0+0+0+0+0+0+0+0+0+0+0+0+0+0+----------|

"So give me one...."

Riff 9 is the Guitar Fillers
|--------------------------------------------------------------------------|
|--------------------------------------------------------------------------|
|--------------------------------------------------------------------------|
|--------------------------------------------------------------------------|
|6-5-3--6-5-3--5--------6-5-3--5-------------------------------------------|
|6-5-3--6-5-3--5--------6-5-3--5-------------------------------------------|


Finally, use Riff 1 and 2 and alternate as usual (Chorus Riff) Repeat
as necessary to end the song (sounds like a 2nd guitar is dubbed over
the top as a lead guitar doing a harmonic initially and then some wah maybe
I have not bothered learning this part......)


SOLO PART (NOT MUCH OF ONE FROM WHAT I CAN MAKE OUT, BUT YOU CAN PLAY IT
AS THE SECOND GUITAR OVER THE FIRST GUITAR IF YOU REALLY WANT TO, THIS
IS THE ONE THAT IS PLAYED OVER/WITH RIFFS 3 & 4 AS A LEAD GUITAR)
|--------------------------------------------------------------------------|
|--------------------------------------------------------------------------|
|14--12--10--975----14--12--(14)-------------------------------------------|
|--------------------------------------------------------------------------|
|--------------------------------------------------------------------------|
|--------------------------------------------------------------------------|

Good Luck!

THATS ALL FOLKS!!!





Comments


Popular Eighteen Visions tabs & chords
Broken Hearted Tabs
Coma Tabs
Of Ain Tabs
Revolutionizing The Sound Of Music Tabs
The Psychotic Thought That Satan Gave Jesus Tabs
Tonightless Intro Tabs
Tower Of Snakes 1 Tabs
Victim Tabs
Victim 2 Tabs
You Broke Like Glass Tabs


Song lyrics



↑ Back to top | Tablatures and chords are parodies/interpretations of the original songs. You may use it for private study, scholarship, research or language learning purposes only
© 2014 AZChords.com Contact us | Privacy policy | DMCA | Add/correct tabs | Request tabs | Top 50 tabs