» » »

Eighteen Visions, Broken Hearted Tabs (ver.1)

Artists:  A B C D E F G H I J K L M N O P Q R S T U V W X Y Z # 

Broken Hearted Tabs (ver.1)

Eighteen Visions Tabs
 Rating:
4/5 (4 votes)
Broken Hearted lessons Tabs too difficult? Try these video lessons and learn fast
                (Intro)
----------------------------------------------------------------------------
                             Brokenhearted - Eighteen Visions
----------------------------------------------------------------------------


I spent forever trying to figure out the intro, I know this isn't right but it's as 
as I could get. I can't believe there isn't more tabs for this, this is a good song.
Tuning: Standard

Intro

2x
e|-----------------------------------------------------------------------|
B|-----------------------------------------------------------------------|
G|------2-2-----2------2-2-----------------------------------------------|
D|----0-------0------0---------------------------------------------------|
A|--2-------2------------------------------------------------------------|
E|----------------3------------------------------------------------------|

Lead thing
e|-----------------------------------------------------------------------|
B|-----------------------------------------------------------------------|
G|---12-11-9-7---12-11-9-7-6-6-6h7---------------------------------------|
D|-----------------------------------------------------------------------|
A|-----------------------------------------------------------------------|
E|-----------------------------------------------------------------------|
            
Submit corrections

comments powered by Disqus
↑ Back to top | Eighteen Visions Tabs for Broken Hearted. Lyrics for acoustic guitar and electric guitar. Tablatures and chords are parodies/interpretations of the original songs. You may use it for private study, scholarship, research or language learning purposes only