» » »

Eighteen Visions, Broken Hearted Tabs (ver.2)

Artists:  A B C D E F G H I J K L M N O P Q R S T U V W X Y Z # 

Broken Hearted Tabs (ver.2)

Eighteen Visions Tabs
 Rating:
3.6/5 (5 votes)
Broken Hearted lessons Tabs too difficult? Try these video lessons and learn fast
1
                

LEAD INTRO  X2

|--------------------------------|
|-12~-11~-9~-7~--12~-11~-9~-7~---|
|--------------------------------|
|--------------------------------|
|--------------------------------|
|--------------------------------|


LEAD VERSE  X4
|--------------------------------------|
|--------------------------------------|
|--------------------------------------|
|-7-----------7-----7-----7------------| 
|-5-----------5-----5-----5------------|
|---0-0-0-0-0---0-0---0-0---0-0-0-0-0--|
    . . . . .   . .   . .   . . . . .

LEAD PRE-CHORUS
|---------------------------------|
|---------------------------------|
|-7-7-6-7-7-7-7-7-7-7-7-7-7-7-7-7-|
|---------------------------------|
----------------------------------|
|---------------------------------|
            . . . . . . . . . . .

RHYTHM PRE-CHORUS
|---------------------------|
|---------------------------|
|---------------------------|
|---------------------------|
|-5-5-5--5-5--5--4-4-4------|
|-3-3-3--3-3--3--2-2-2------|

RHYTHM CHORUS
|-----------------------|
|-----------------------|
|-----------------------|
|7----------------------|
|5(X8)-9-------5--------|   X2
|------7(X8)---3(X16----|

LEAD CHORUS  X2
|--------------------------------|
|-12~-11~-9~-7~--12~-11~-9~-7~---|
|--------------------------------|
|--------------------------------|
|--------------------------------|
|--------------------------------|

VERSE X4
PRE-CHORUS X4
CHORUS X4

Bridge: Rhythm
|--------------------------------------------------|
|--------------------------------------------------|
|--------------------------------------------------|
|--------------------------------------------------|
|-5-5-5-5-5-5-5-5-5-5-5-5-5---5-5-5--5-5--5--4-4-4-|
|-3-3-3-3-3-3-3-3-3-3-3-3-3---3-3-3--3-3--3--2-2-2-|

Bridge: Lead
|-------------------------------------------------|
|-15-15-15-15-15-15-15-15-15-15-15-15-14-14-14-15-|
|-------------------------------------------------|
|-------------------------------------------------|
|-------------------------------------------------|
|-------------------------------------------------|
            
Submit corrections

comments powered by Disqus
↑ Back to top | Eighteen Visions Tabs for Broken Hearted. Lyrics for acoustic guitar and electric guitar. 1 Tablatures and chords are parodies/interpretations of the original songs. You may use it for private study, scholarship, research or language learning purposes only