» » »

Broken Hearted Tabs (ver.3)

Artists:  A B C D E F G H I J K L M N O P Q R S T U V W X Y Z # 

Broken Hearted Tabs (ver.3)

Eighteen Visions
Rating:
0/5 (0 votes)

Hard to play? Try these video lessons and learn fast.
                this is one of my favorite songs ever. i was disapointed to see that there wasnt a 
correct tab ANYWHERE online. so i did it myself :)

Intro (clean electric)
eb|--------------------------------\-- /
Bb|----------------------------------- / \
Gb|----2-2----2------2-2-------------- /  \   two times
Db|---0------0-----0--------------- -- /
Ab|--2------2------------------------- /
Eb|--------------3-------------------- /

Lead (distorted electric)
eb|------------------------|
Bb|------------------------|
Gb|-12~-11~-9~-7~-6-6-6-7~-|
Db|------------------------|
Ab|------------------------|
Eb|------------------------|

Verse:
Chords (distorted electric)

    B             G
eb|-------------|-------------|
Bb|-------------|-------------|
Gb|-4-4-4-4-4-4-|-------------|
Db|-4-4-4-4-4-4-|-5-5-5-5-5-5-|
Ab|-2-2-2-2-2-2-|-5-5-5-5-5-5-|
Eb|-------------|-3-3-3-3-3-3-|
PM:   . .   . .     . .   . .

Pre-Chorus

eb|------------------------------|
Bb|------------------------------|
Gb|------------------------------|
Db|-7-7-7-7-7-7-7-7~-7-7-7-7-7-7-|
Ab|-5-5-4-4-4-5-5-5~-5-4-4-4-4-4-|
Eb|------------------------------|
PM:     . . .          . . . . .

lead
eb|------------------------------|
Bb|------------------------------|
Gb|-7-7-6-6-6-7-7-7~-7-7-7-7-7-7-|
Db|------------------------------|
Ab|------------------------------|
Eb|------------------------------|


Chorus:

Acoustic: (strum paturn on each chord: down down down up down down down up down)

    D   Bm   G
eb|-2-|-2--|-3---------------------|
Bb|-3-|-3--|-3---------------------|
Gb|-2-|-4--|-0-(strum pattern x2)--|
Db|-0-|-4--|-0---------------------|
Ab|---|-2--|-3---------------------|
Eb|---|----|-2---------------------|

Distorded

eb|---------|---------|---------|
Bb|---------|---------|---------|
Gb|-7-(x10)-|---------|---------|
Db|-7-------|-9-(x10)-|-5-(x20)-|
Ab|-5-------|-9-------|-5-------|
Eb|---------|-7-------|-3-------|

repeat intro lead with verse underneath

repeat pre-chorus

repeat chorus

Bridge

eb|--------------------|--------------------| this is 2 guitars. the low E5
Bb|-10-8-7-5---2-2-2-3-|-10-8-7-5---2-2-2-3-| G5 chords are one, and the
Gb|--------------------|--------------------| high part is another
Db|--------------------|--------------------|
Ab|-2------------------|-5------------------|
Eb|-0------------------|-3------------------|

eb|-------------------------------------------|
Bb|-------------------------------------------|
Gb|-------------------------------------------|
Db|-------------------------------------------|
Ab|-2-2-2--2-2~-2-2--2-4-5-5-5--5-5~-55555555-|
Eb|-0-0-0--0-0~-0-0--0-2-3-3-3--3-3~-33333333-|

during the repeating "i need a begining again, there is a guitar or piano (cant tell 
which) playing the intro, then on the last 2 phrases, theres a guitar playing the verse riff.

repeat the chorus, and the intro lead part. and thats it! youre done!

the end of an amazing song.
            
Hard to play? Try these video lessons and learn fast. | Correct




comments powered by Disqus
↑ Back to top | Tablatures and chords are parodies/interpretations of the original songs. You may use it for private study, scholarship, research or language learning purposes only