» » »

Edguy, King Of Fools Tabs (ver.1)

Artists:  A B C D E F G H I J K L M N O P Q R S T U V W X Y Z # 

King Of Fools Tabs (ver.1)

Edguy Tabs
 Rating:
3.8/5 (5 votes)
King Of Fools lessons Tabs too difficult? Try these video lessons and learn fast
                Edguy - King of fools ( Hellfire club )

Tuning: e-a-d-g-b-e


 (Keyboard)
 1)-----------------------------------------------|
 2)-----16----------------------------------------|
 3)--------15--13----13--11-----11-10-----10--11--|
 4)--13-----------13---------13--------13---------|
 5)-----------------------------------------------|
 6)-----------------------------------------------|


 Intro
 1)----------------------|
 2)----------------------|
 3)----------------------|
 4)--8------6------6-----|
 5)--6------4------6-----|
 6)--6------4------4-----|


  Verse
 1)----------------------------------------|
 2)----------------------------------------|
 3)------------------------------9H--------|
 4)--0-1-0---0-1-0---0-1-3-1---------------|
 5)--0-1-0---0-1-0---0-1-3-1---------------|


 Bridge guitar 1
 1)---------------|
 2)---------------|
 3)---------------|
 4)--4---6--------|
 5)--2---4--------|
 6)--2---4--------|

 Bridge guitar 2
 1)---------------------|
 2)---------------------|
 3)---------------------|
 4)--8-6-4--8-6-4---6---|
 5)-----------------4---|
 6)-----------------4---|


 Chorus
 1)------------------------------------------------|
 2)------------------------------------------------|
 3)-----3-----7------8---------3-----7------8--7---|
 4)--5--3--3--7---5--8--3---5--3--3--7---5--8--7---|
 5)--5--1--3--5---5--6--3---5--1--3--5---5--6--5---|
 6)--3-----1------3-----1---3-----1------3---------|


PLay the intro again


 Verse
 1)----------------------------------------|
 2)----------------------------------------|
 3)------------------------------9H--------|
 4)--0-1-0---0-1-0---0-1-3-1---------------|
 5)--0-1-0---0-1-0---0-1-3-1---------------|


 Bridge guitar 1
 1)-------------------|
 2)-------------------|
 3)-------------------|
 4)--4---6----4---6---|
 5)--2---6----2---4---|
 6)--2---4----2---4---|


 SoloRhytm
 1)-----------------------------|
 2)-----------------------------|
 3)-----4------------4----------|
 4)--6--4--8--6---6--4--4--6----|
 5)--6--2--6--4---6--2--4--4----|
 6)--4-----6--4---4-----2--4----|


 Solo
 1)-------------------------------------------|
 2)-------------------------------------------|
 3)--1--4-3-------4-3--------3---3------------|
 4)---------4--1-------4--1----4----6---------|
 5)-------------------------------------4-4---|
 6)-------------------------------------------|

 ROCK ON!
            
Submit corrections

comments powered by Disqus
↑ Back to top | Edguy Tabs for King Of Fools. Lyrics for acoustic guitar and electric guitar. Tablatures and chords are parodies/interpretations of the original songs. You may use it for private study, scholarship, research or language learning purposes only