» » »

Edguy, Mysteria Tabs (ver.1)

Artists:  A B C D E F G H I J K L M N O P Q R S T U V W X Y Z # 

Mysteria Tabs (ver.1)

Edguy Tabs
 Rating:
4/5 (10 votes)
Mysteria lessons Tabs too difficult? Try these video lessons and learn fast
                Eb tuning


Intro
1)-------------------------------------------------------------------------|
2)-------------------------------------------------------------------------|
3)-------------------------------------------------------------------7--7--|
4)-------------------------------------------------------------------7--7--|
5)--7----8-7-----5-----7---8-7---10----8---7----8-7----5----7-8-7----5--5--|
6)-----0------0-----0----0-----0-----0---0----0------0----0-------0--------|

Intro
1)------------------------------------------------------|
2)------------------------------------------------------|
3)------------------------------------------------------|
4)--9-----10--9-----7-----9--10--9-----12-----10--------|
5)--7-----8---7-----5-----7--8---7-----10-----8---------|
6)-----0---------0-----0------------0------0------0-----|

1)-------------------------------------------|
2)-------------------------------------------|
3)-------------------------------------7--7--|
4)--9-----10--9-----7-----9--10--9-----7--7--|
5)--7-----8---7-----5-----7--8---7-----5--5--|
6)-----0---------0-----0------------0--------|

Intro
1)------------------------------------------------------|
2)------------------------------------------------------|
3)------------------------------------------------------|
4)--9-----10--9-----7-----9--10--9-----12-----10--------|
5)--7-----8---7-----5-----7--8---7-----10-----8---------|
6)-----0---------0-----0------------0------0------0-----|

1)-----------------------------------|
2)-----------------------------------|
3)-----------------------------------|
4)--9-----10--9-----7------7--3------|
5)--7-----8---7-----5------7--3------|
6)-----0---------0-----0---5--1------|

Verse
1)-------|
2)-------|
3)-------|
4)--2----| + intro riff again
5)--2----|
6)--0----|

Prechorus
1)---------------|
2)---------------|
3)--7--10--------|
4)--7--10--7--5--|
5)--5--8---7--5--|
6)---------5--3--|

Chorus
1)------------------------------------|
2)------------------------------------|
3)--------------------7--9--10--9--5--|
4)--7--5--3--7--5--3--7--9--10--9--5--|
5)--7--5--3--7--5--3--5--7--8---7--3--|
6)--5--3--1--5--3--1------------------|

Verse 2
1)----------------------------|
2)----------------------------|
3)----------------------------|
4)--2-----2-2----2-----2-3-2--| + intro riff again
5)----------------------------|
6)-----0------0-----0---------|


1)---------------------------------------------------|
2)---------------------------------------------------|
3)------4-5-4-5-4--5-7-5-4-2--4-5-4-5-4--5-7-5-2-----|
4)--2---2-3-2-3-2--3-5-3-2-0--2-3-2-3-2--3-5-3-0--2--|
5)--2---------------------------------------------2--|
6)--0---------------------------------------------0--|


1)--------|
2)--------|
3)--7--5--|
4)--7--5--|
5)--5--3--|
6)--------|

thanks, please rate it after you learn it.
            
Submit corrections

comments powered by Disqus
↑ Back to top | Edguy Tabs for Mysteria. Lyrics for acoustic guitar and electric guitar. Tablatures and chords are parodies/interpretations of the original songs. You may use it for private study, scholarship, research or language learning purposes only