» » »

King Of Fools Tabs (ver.3)

Artists:  A B C D E F G H I J K L M N O P Q R S T U V W X Y Z # 

King Of Fools Tabs (ver.3)

Edguy
Rating:
2/5 (1 vote)

Hard to play? Try these video lessons and learn fast.
                Edguy

King Of Fools

Copyright (c)  (Nuclear blast) (2004)
Version 1.0 - (21.5.2005)

TRANSCRIBED: Joni Fred

guitars are in standard tune

main riff

where keyboards are in backround

|-----------------------|
|-----------------------|
|--8~~------------8~~---|
|--8~~--11~~-6~~--8~~---|
|--6~~--11~~-6-~~-6~~---|
|--6~~--9~~--4~~--6-~~--|

verse riff for guitar
                                2x
|---------------------------------|
|---------------------------------|
|---------------------------------|
|---------------------------------|
|--6-7-6----6-7-6---6-7-9-7-------|
|--6-7-6----6-7-6---6-7-9-7-<6>~~-|

last time

|---------------------------|
|---------------------------|
|---------------------------|
|---------------------------|
|--6-7-6----6-7-6---6-7-9-7-|
|--6-7-6----6-7-6---6-7-9-7-|


pre chorus 1

|-------------------------|
|-------------------------|
|-------------------------|
|---------------------11--|
|--9--11-----11-11-11-11--|
|--7--9--9-9-9--9--9--9---|

chorus riff              ending................................
                         1.    2.                              |
|-----------------------|-----|--------------------------------|
|-----------------------|-----|--------------------------------|
|-----------------------|-----|--------------------------------|
|-11-----2-------11--7--|-2---|---------------------------11---|
|-9---7--2--11---9---5--|-2---|--11-11-11-11-11-11-11-11--11---|
|-----5--0--9-----------|-0---|--9--9--9--9--9--9--9--9---9----|

main riff

verse riff

|---------------------------------|
|---------------------------------|
|---------------------------------|
|---------------------------------|
|--6-7-6----6-7-6---6-7-9-7-------|
|--6-7-6----6-7-6---6-7-9-7-<6>~~-|

|---------------------------|
|---------------------------|
|---------------------------|
|---------------------------|
|--6-7-6----6-7-6---6-7-9-7-|
|--6-7-6----6-7-6---6-7-9-7-|

pre chorus 2

|-----------------------------|
|-----------------------------|
|-----------------------------|
|-----------------------------|
|--9--6--9--11-----11-----11--|
|--7--4--7--9--9-9-9--9-9-9---|

chorus riff

|--------------------------|-----------------------------|
|--------------------------|-----------------------------|
|--------------------------|-----------------------------|
|--11----2------11--7---2--|--11----2------11--7---------|
|--9--7--2--11--9---5---2--|--9--7--2--11--9---5--9--11--|
|-----5--0--9-----------0--|-----5--0--9----------7--9---|


melody riff

guitar 1

|--------------------------------------------------------------------------|
|--h-----------------------------------------------------------------------|
|-0-1~~----4---3-------------4---3-------------3-----3---1~~~--------------|
|-----------------4---1~~-----------4---1-~~------4-------------------2-4--|
|--------------------------------------------------------------4-4-~~------|
|--------------------------------------------------------------------------|


|-------------------------------------------------------|
|--h----------------------------------------------------|
|-0-1~~----4---3-------------4---3-----h------3-----3---|
|-----------------4---1~~-----------4-2-4-~~-----4------|
|-------------------------------------------------------|
|-------------------------------------------------------|

 ---------------------------|
 ---------------------------|
 ---<3>~~---<3>~~----<3>~~--|
 -x-------x--------x--------|
 ---------------------------|
 ---------------------------|

guitar 2  listen rhythm

|-------------------------------------------------|
|-------------------------------------------------|
|-------------------------------------------------|
|-------------------------------------------------|
|--6--6----6---6--6----6----9--9----9--9--9-----9-|
|--4--4-44-4---4--4-44-4----7--7-77-7--7--7--77-7-|

 --------------------------------------|
 --------------------------------------|
 --------------------------------------|
 -8--8----8--8-8----8------------------|
 -6--6-66-6--6-6-66-6---11--11-----11--|
 -----------------------9---9---99-9---|

|----------------------------------------------------|
|----------------------------------------------------|
|----------------------------------------------------|
|----------------------------------------------------|
|--6--6-----6---6--6-----6---9--9-----9---9--9-----9-|
|--4--4--44-4---4--4--44-4---7--7--77-7---7--7--77-7-|

 -----------------------------------------------|
 -----------------------------------------------|
 -----------------------------------------------|
 -----------------------------------------------|
 --4--4----4--4-4----4--11-------11---------11--|
 --2--2-22-2--2-2-22-2--9--9--9--9---9--9---9---|


chorus riff

ending

|-------------------------|
|-------------------------|
|-------------------------|
|----11----11---11-\-x----|
|--9-9--99-9-99-9--\-x----|
|-------------------------|


end----------------------------------------------
            
Hard to play? Try these video lessons and learn fast. | Correct




comments powered by Disqus
↑ Back to top | Tablatures and chords are parodies/interpretations of the original songs. You may use it for private study, scholarship, research or language learning purposes only