>
 >
Free Ride 1

Free Ride 1 Guitar Tabs

Edgar Winter Group - Free Ride 1 chords, tabs, tablatures, lyrics

Guitar lessons | Add/correct | Request | Top 50 tabs Artists:  A B C D E F G H I J K L M N O P Q R S T U V W X Y Z 0-9

Free Ride 1 Guitar Tabs – Edgar Winter Group

CD, Sheet music, Poster

Do you like Free Ride 1? Share with your friends now
Bass TabsBass Tabs v2TabsTabs v2Tabs v3
Free Ride
Edgar Winter Group

Well this is only about my 3rd tab ever, and the first one with a solo, but I looked up
song and there were only two tabs, both lacking a few key parts.  Anyway I spent like an
listening to the song and figuring most of it out and this is what I got.  Sorry i was 
lazy to do the outro solo.


Sound Settings/Info
In general I'd stick to your treble pickup for most of the song except when you're
because that's your choice.  Most of the song is clean, or with very little distortion, but
the lead riffs and solos id put your gain to maybe 6 or 7 depending on your amp.  Again 
all your call but thats just what I do.

Key
/=slide up
\=slide down
x=muted string
b=bend
r=return bend
h=hammer-on
p=pull-off
~=vibrato

0:02--->Intro Riff

         A       G     D               G  D  A
e|-------9---9---7--7--7--x-x-x-x------7--7-----x-x-x-x---||
B|-------10--10--8--8--7--x-x-x-x------8--7--5--x-x-x-x---||
G|----9--9---9---7--7--7--x-x-x-x---7--7--7--6--x-x-x-x--*||  X2
D|-/11---11--11--9--9--7--x-x-x-x-/9---9--7--7--x-x-x-x--*||
A|------------------------x-x-x-x---------------x-x-x-x---||
E|------------------------x-x-x-x---------------x-x-x-x---||

0:17--->Verse Chords  (can also be played as power chords)
     D    A   F#m
e|---2--------2--|
B|---3----2---2--|
G|---2----2---2--|
D|---0----2---4--|
A|--------0---4--|
E|------------2--|

F#m might not be the exact chord but it sounds right.

Chords are played over words as such

    D            A        F#m       A
The mountain is high, the valley is low
    D       A        F#m          A
And you're confused, on which to go
   D      A        F#m         A
So I come here, to give you a hand
    D        A         F#m        A
And lead you into, the promised land...so
__________________________________________
You can pretty much use any strumming pattern you like for the chords, or just play them
where they occur, whatever.  One I like to use is

     D            A
e|--2-2-x-x-x-x------x-x-x-x--2-2-x-x-x-x--||
B|--3-3-x-x-x-x--2-2-x-x-x-x--2-2-x-x-x-x--||
G|--2-2-x-x-x-x--2-2-x-x-x-x--2-2-x-x-x-x-*||
D|--0-0-x-x-x-x--2-2-x-x-x-x--4-4-x-x-x-x-*||
A|------x-x-x-x--0-0-x-x-x-x--4-4-x-x-x-x--||
E|------x-x-x-x------x-x-x-x--2-2-x-x-x-x--||


0:33--->Chorus Chords (can also be played in power chords)
   F#m  GM   A
e|-2-2--3-3--5-|
B|-2-2--3-3--5-|
G|-2-2--4-4--6-|
D|-4-4--5-5--7-|
A|-4-4--5-5--7-|
E|-2-2--3-3--5-|

Played over words like so:
F#F#     GG            A
    Come on and take a free ride (free ride)
F#F#     GG           A
    Come on continue by my side
F#F#     GG             D   D   (I suggest playing a D power chord here)
    Come on and take a free ride

0:45--->Post Chorus Riffs   (Rhythm guitar plays Intro chords under this)


e|--------------------------------------------------5-5~-------------|
B|-----------------------------------------------2-5-----------------|
G|-2--5--2--4--0--3--0--2---2-2~~--4b6--4b6r--2~~---------4b6-4b6r-2~|
D|-----------------------2h4-----------------------------------------|
A|-------------------------------------------------------------------|
E|-------------------------------------------------------------------|

1:02 Verse 2 "All over the country..."
Repeat chords for 1st verse, match w/ corresponding words.

1:18 Chorus 2
Repeat Chords as well but for post chorus Riffs do only up to the first two bends and
time hitting and holding the 2nd fret on the G string (A).  Also here a second guitar
the bend riff as soon as the 1st guitar has hit the first bend.


1:37 Solo:Well I'll be honest this is my 1st time tabbing a solo, but I'll do my best
since no one else tabbed it.  I broke it up into sectionsso it isnt too confusing to read.
Most of the solo switches between A major and minor pentatonic, with a second guitar 
in at about 1:54 that solos as well.  Verse chords are played under the solo.  I'm
a little iffy about the part played under the "Yeah, Yeah, Yeah Yeah" because its hard 
hear, but i gave it my best shot with that.

 (Yeah, Yeah...)
e|---------------------5------5-----------------------------------|
B|-----------------5-8---8b10(hold)-8-5---------------------------|
G|-------------4-6----------------------7-5-7-7b9-7b9-7b9r-5~-----|
D|-------2/4-7------------------------------------------------7---|
A|-2/4-7----------------------------------------------------------|
E|----------------------------------------------------------------|

e|----------------5---5-8/10-10b12r-8--------|
B|--------------5---8-----------------10-10~~|
G|-5-7-5---5-7b9-----------------------------|
D|-------7-----------------------------------|
A|-------------------------------------------|
E|-------------------------------------------|

e|-----8-10b12r-8---10b12-8-------------------------|
B|-8-10-----------10-------10-10-10/13-10-10~~------|
G|--------------------------------------------------|
D|--------------------------------------------------|
A|--------------------------------------------------|
E|--------------------------------------------------|

e|---------8-10b12-10b12-10b12-10b12-12r10-8--------|
B|-8---8-10----------------------------------10-10~~|
G|---9----------------------------------------------|
D|--------------------------------------------------|
A|--------------------------------------------------|
E|--------------------------------------------------|

1:54-->Dual Lead Part-->Okay Here I'll tab out each guitar at a time.  It was a good
each guitar track was in either the left or right speaker so i can mute one and listen to
other track.  Lucky Me eh, guitar 1 will be the left speaker and guitar 2 will be the 
 I will tab all of guitar 1 first then all of guitar 2, but they probably wont exactly
up the way the notes are, but tab has no rhythm notation so that wouldnt matter anyway.

Guitar 1
e|------10b12-10b12-10p8--8-----8-10-8----|
B|-8---8----------------10--/10--------10~|
G|--/9------------------------------------|
D|----------------------------------------|
A|----------------------------------------|
E|----------------------------------------|

                       (strike the 15th fret the last time twice while bent)
e|------------------------12-------12--------------------|
B|------------13-15-15b17----15b17----15b17-15~r---15-13-|
G|-12-14--/14--------------------------------------------|
D|-------------------------------------------------------|
A|-------------------------------------------------------|
E|-------------------------------------------------------|

                           (2:04) "Free Ride!"
e|------15----------------------------------|
B|-15b17---15b17-15b17-15b17r-13----15----13|
G|-------------------------------14---------|
D|------------------------------------------|
A|------------------------------------------|
E|------------------------------------------|

Guitar 2 (right speaker)(comes in when guitar 1 is bending 10th fret)

e|---7b9-7b9-7-5-7-5-5~||------------15-----15----------15b17-15b17~|
B|---------------------||-13-15-15b17--15b17--15b17r-13-------------|
G|---------------------||-------------------------------------------|
D|---------------------||-------------------------------------------|
A|---------------------||-------------------------------------------|
E|---------------------||-------------------------------------------|

                                                "Free Ride!"
e|-15-12---------------15---------------------------------|
B|-------15p13----15b17--15-13--13-15b17r-13---15b17-13~~~|
G|-------------14----------------------------14-----------|
D|--------------------------------------------------------|
A|--------------------------------------------------------|
E|--------------------------------------------------------|

I'm going to tell you right now that is definitely not 100% correct but its decently
and sounds almost the same.


2:05-2:19-->No guitar, could be one pick-scratching but its probably keyboard.

2:20 Outro Riffs-I'm going to write out the lead part, for the outro the rhythm is just
intro chords.  There are also 2 guitars playing the riffs but they are pretty much
the same thing, just one comes in less than a second later.

2:24              2:28        2:32
e|----------------|-----------|----2-0-2~~|
B|----------------|-----------|2-5--------|
G|-----2h4p2--2~~~|4b6-4b6r-2~|-----------|
D|-2h4------h4----|-----------|-----------|
A|----------------|-----------|-----------|
E|----------------|-----------|-----------|


Outro Solo....I am not going to write.  Its not too difficult to figure out, very
to the first solo with 2 guitars, but this time they are playing identical riffs.

Well anyway thats free ride. Hope you enjoyed.





Comments


Popular Edgar Winter Group tabs & chords
Frankenstein Bass Tabs
Free Ride Bass Tabs
Free Ride 1 Bass Tabs
Autumn Chords
Frankenstein Tabs
Frankenstein (Intro) Tabs
Frankenstein 1 Tabs
Free Ride Tabs
Free Ride 2 Tabs
The Power Of Positive Drinkin Intro Tabs


Song lyrics



↑ Back to top | Tablatures and chords are parodies/interpretations of the original songs. You may use it for private study, scholarship, research or language learning purposes only
© 2014 AZChords.com Contact us | Privacy policy | DMCA | Add/correct tabs | Request tabs | Top 50 tabs