>
 >
Free Ride

Free Ride Bass Tabs

Edgar Winter Group - Free Ride chords, tabs, tablatures, lyrics

Guitar lessons | Add/correct | Request | Top 50 tabs Artists:  A B C D E F G H I J K L M N O P Q R S T U V W X Y Z 0-9

Free Ride Bass Tabs – Edgar Winter Group

CD, Sheet music, Poster

Do you like Free Ride? Share with your friends now
Bass TabsBass Tabs v2TabsTabs v2Tabs v3
Edgar Winter Group- Free Ride
Tuning- Normal


    q       w   4x  H  q     h  e  e  q     H  q     h  e  e  s  s
G---r--||---r---||--r-----|--r--r--------|--r-----|--r--r---------------|
D---e--||*--e--*||--e-----|--e--e--------|--e-----|--e--e--7--7--5------|
A---s--||*--s--*||--s-----|--s--s--------|--s-----|--s--s---------------|
E---t--||---t---||--t--5--|--t--t--5--5--|--t--5--|--t--t---------------|


    e     E  s  e  q  e  e  e     E  s  e  q  q  e     q  e  q  e  s
G------|-----------------------|--------------------|-------------------|
D------|-----------------7-----|--------------------|-------------------|
A---7--|--5--3--5-----------7--|--7-----7-----------|--5--3-------------|
E------|-----------5--5--------|-----0-----5--5--3--|--------5--5--3----|


    E     q  e  q  e  s  s  e     E  E  q  q  e     E  s  e  q  e  e
G------|-----------------------|-----------------|----------------------|
D------|--------------7--------|-----------------|----------------------|
A------|-----7-----------7-----|--5--3-----------|--------7--------5----|
E---5--|--0-----5--5--------5--|--------5--5--5--|--0--0-----5--5-------|


    e     E  s  e  q  e  e  e     e  e  e  q  e  e  e     e  e  q  e
G------|-----------------------|-----------------------|----------------|
D------|-----------------7-----|-----------------------|--------4-------|
A------|--5--5--3--------------|--7--------------------|----------------|
E---5--|-----------5--5-----5--|-----7--0--5--5--5--5--|--2--2-----3----|


    Q     q  q  e  e  e  e     e  Q  e  Q     e  Q  e  e  e  e     e
G------|--------------------|--------------|--------------------|-------|
D------|--------------------|--------------|--------------------|-------|
A------|--------4--7--4-----|--------------|--5--5--5--5--3-----|-------|
E---3--|--5--5-----------5--|--2--2--3--3--|-----------------5--|--2----|


    Q  e  Q     q  H     w       H  q     h  e  e  q     H  q     h
G------------|--------|--r--||---r-----|--r--r--------|--r-----|--r-----|
D------------|--------|--e--||*--e-----|--e--e--------|--e-----|--e-----|
A------------|--5--5--|--s--||*--s-----|--s--s--------|--s-----|--s-----|
E---2--3--3--|--------|--t--||---t--5--|--t--t--5--5--|--t--5--|--t-----|


    e  e  s  s  e   2x  E  s  e  q  e  e  e     E  s  e  q  q  e
G---r---------------||-----------------------|--------------------|-----|
D---e--7--7--5-----*||-----------------7-----|--------------------|-----|
A---s-----------7--*||--5--3--5-----------7--|--7-----7-----------|-----|
E---t---------------||-----------5--5--------|-----0-----5--5--3--|-----|


    q  e  q  e  s  E     q  e  q  e  s  s  e     E  E  q  q  e     E
G---------------------|-----------------------|-----------------|-------|
D---------------------|--------------7--------|-----------------|-------|
A---5--3--------------|-----7-----------7-----|--5--3-----------|-------|
E---------5--5--3--5--|--0-----5--5--------5--|--------5--5--5--|--0----|


    s  e  q  e  e  e     E  s  e  q  e  e  e     e  e  e  q  e  e  e
G---------------------|-----------------------|-------------------------|
D---------------------|-----------------7-----|-------------------------|
A------7--------5-----|--5--5--3--------------|--7----------------------|
E---0-----5--5-----5--|-----------5--5-----5--|-----7--0--5--5--5--5----|


       e  e  q  e  Q     q  q  e  e  e  e     e  Q  e  Q     e  Q  e
G---|-----------------|--------------------|--------------|-------------|
D---|--------4--------|--------------------|--------------|-------------|
A---|-----------------|--------4--7--4-----|--------------|--5--5--5----|
E---|--2--2-----3--3--|--5--5-----------5--|--2--2--3--3--|-------------|


    e  e  e     e  Q  e  Q     q  H     w     H  q     h  e  e  q
G------------|--------------|--------|--r--|--r-----|--r--r--------|----|
D------------|--------------|--------|--e--|--e-----|--e--e--------|----|
A---5--3-----|--------------|--5--5--|--s--|--s-----|--s--s--------|----|
E---------5--|--2--2--3--3--|--------|--t--|--t--5--|--t--t--5--5--|----|


    H  q     h  e  e  s  s  e     E  s  e  q  e  e  e     E  s  e  q
G---r-----|--r--r--------------|-----------------------|----------------|
D---e-----|--e--e--7--7--5-----|-----------------7-----|----------------|
A---s-----|--s--s-----------7--|--5--3--5-----------7--|--7-----7-------|
E---t--5--|--t--t--------------|-----------5--5--------|-----0-----5----|


    q  e     q  e  q  e  s  E     q  e  q  e  s  s  e     E  E  q  q
G---------|--------------------|-----------------------|----------------|
D---------|--------------------|--------------7--------|----------------|
A---------|--5--3--------------|-----7-----------7-----|--5--3----------|
E---5--3--|--------5--5--3--5--|--0-----5--5--------5--|--------5--5----|


    e     E  s  e  q  e  e  e     E  s  e  q  e  e  e     e  e  e  q
G------|-----------------------|-----------------------|----------------|
D------|-----------------------|-----------------7-----|----------------|
A------|--------7--------5-----|--5--5--3--------------|----------------|
E---5--|--0--0-----5--5-----5--|-----------5--5-----5--|--2--2--3--5----|


    e  e  e     e  e  q  e  Q     q  q  e  e  e  e     e  Q  e  Q
G------------|-----------------|--------------------|--------------|----|
D------------|--------4--------|--------------------|--------------|----|
A------------|-----------------|--------4--7--4-----|--------------|----|
E---5--3--5--|--2--2-----3--3--|--5--5-----------5--|--2--2--3--3--|----|


    e  Q  e  e  e  e     e  Q  e  Q     q  h  e  e       e  e  q  q
G---------------------|--------------|--------------||------------r-----|
D---------------------|--------------|--------------||*-----------e-----|
A---5--5--5--5--3-----|--------------|--5--5--------||*-----------s-----|
E------------------5--|--2--2--3--3--|--------3--4--||---5--3--5--t-----|


    e  e   32x q  q  h
G----------||--------r--||----------------------------------------------|
D---------*||--------e--||----------------------------------------------|
A---------*||--------s--||----------------------------------------------|
E---3--4---||--5--5--t--||----------------------------------------------|





Comments


Popular Edgar Winter Group tabs & chords
Frankenstein Bass Tabs
Frankenstein 1 Bass Tabs
Freeride Bass Tabs
Frankenstein Tabs
Frankenstein (Intro) Tabs
Frankenstein 1 Tabs
Frankenstein 2 Tabs
Free Ride Tabs
Free Ride 1 Tabs
Autumn Ukulele


Song lyrics



↑ Back to top | Tablatures and chords are parodies/interpretations of the original songs. You may use it for private study, scholarship, research or language learning purposes only
© 2014 AZChords.com Contact us | Privacy policy | DMCA | Add/correct tabs | Request tabs | Top 50 tabs