» » »

Edgar Winter Group, Free Ride Bass tabs (ver.3)

Artists:  A B C D E F G H I J K L M N O P Q R S T U V W X Y Z # 

Free Ride Bass tabs (ver.3)

Edgar Winter Group Tabs
Rating:
0/5 (0 votes)
Free Ride lessons Tabs too difficult? Try these video lessons and learn fast
                This song is from the album "They Only Come Out at Night" (which was probably a refernce
albinos, being that they cannot be in the sun - Edgar Winter, of course, is an albino).
people know this song as being performed by Rick Derringer (bass and vocals) as a member 
The Edgar Winter Group, however, this song was actually written and recorded (bass)
Dan Hartman. Fantastic bass line - have fun!


Tuning: EADG

Time signature: 4/4

r = rest (listen for duration)
/ = slide (low to high)
()= note inside parenthesis not plucked or hammered on
{}= note inside pointed parenthesis still ringing from previous measure
||= measure gets repeated (see number of times above measure, e.g. 4x)


*My tabs are meant to be read in conjunction with listening to the song.
In other words, there are no specific notations to account for note/rest duration.
However, you will find that I've made an attempt to strategically space the notes
and rests within their respective measures in order to represent the appropriate
durations.

 INTRO

G||--------------------------------|--------------------------------||
D||--------------------------------|--------------------------------||
A||r-------------------------------|--------------------------------||
E||--------------------------------|--------------------------------||

|--------------------------------|--------------------------------|
|--------------------------------|--------------------------------|
|------------------------0-r-----|--------------------0---0-r-----|
|--------------------------------|--------------------------------|

|--------------------------------|--------------------------------|
|--------------------------------|--------------------7---7-5-----|
|------------------------0-r-----|----------------------------7---|
|--------------------------------|--------------------------------|

VERSE

  3x
||--------------------------------|--------------------------------||
||--------------------------------|--------------------7---7-5-----||
||5---5-7-------------------------|----------------------------7---||
||--------8-8-5-----0-5---5---5---|0-----0-2-3---5-----------------||

|--------------------------------|--------------------------------|
|--------------------------------|--------------------------------|
|5---5-7-------------------------|--------------------------------|
|--------8-8-5-----0-5---5---5---|0-----0-2-3---5-----5---4---3---|

CHORUS

|--------------------------------|----------------------------------|
|----4-r-------------5-r---------|----7-r---------------------------|
|--------------------------------|----------------------7---9-7-----|
|2-----------2---3-----------3---|5-----------/---(9)-----------9---|

|--------------------------------|----7-r---------------------------|
|----4-r-------------5-r---------|----------------------7---9-7-----|
|--------------------------------|5-----------/---(9)-----------9---|
|2-----------2---3-----------3---|----------------------------------|

|--------------------------------|----------------------------------|
|----4---------------5-----------|----------------------------------|
|--------------------------------|5---r---5-------------------------|
|2-----------2---3-----------3---|----------------------------------|

|--------------------------------|
|--------------------------------|
|{5}-----------------------------|
|--------------------------------|

BRIDGE

  3x
||--------------------------------|--------------------------------||
||--------------------------------|--------------------------------||
||------------------------0-r-----|--------------------0---0-r-----||
||--------------------------------|--------------------------------||

|--------------------------------|--------------------------------|
|--------------------------------|--------------------7---7-5-----|
|------------------------0-r-----|----------------------------7---|
|--------------------------------|--------------------------------|

(VERSE)

(CHORUS)

(BRIDGE)

(VERSE (during solo))

(CHORUS (during solo))


OUTRO (with variation after about 16 measures)

         to fade
|------||--------------------------------|--------------------------------||
|------||--------------------------------|--------------------------------||
|------||--------------------------------|--------------------------------||
|2--3--||5---4---5---r-----------5---4---|5---4---5---r-----------2---4---||


              (PLEASE RATE THIS TAB / LEAVE COMMENT)
            

comments powered by Disqus
↑ Back to top | Edgar Winter Group Bass for Free Ride. Lyrics for acoustic guitar and electric guitar. Tablatures and chords are parodies/interpretations of the original songs. You may use it for private study, scholarship, research or language learning purposes only