» » »

Early November, I Want To Hear You Sad Tabs (ver.2)

Artists:  A B C D E F G H I J K L M N O P Q R S T U V W X Y Z # 

I Want To Hear You Sad Tabs (ver.2)

Early November Tabs
 Rating:
4/5 (4 votes)
I Want To Hear You Sad lessons Tabs too difficult? Try these video lessons and learn fast
1
                this song uses HARMONICS! im sick of seeing tabs without harmonics.  i didnt write the strumming pattern.
listen to the cd to hear when chord changes occur.

( )=harmonic
/=slide
x=dead mute
~=let ring
.=palm mute

Tuning: 1/2 step down

intro/verse guitar 1 
eb|---------------------------------------------------------------|
Bb|---------------------------------------------------------------|
Gb|---------------------------------------------------------------|
Db|---------------(5)--------------(5)----------------(5)---------|
Ab|---(5)-(5)-(5)------(5)-(5)-(5)--------(5)-(5)-(5)-------------|
Eb|-/3---3---3---3---/3---3---3---3-----/5---5---5---5------------|
     .   .   .   .    .   .   .   .      .   .   .   .

eb|---------------------------------------------------------------|
Bb|---------------------------------------------------------------|
Gb|---------------------------------------------------------------|
Db|---------------(5)---(5)---------------------------------------|
Ab|---(5)-(5)-(5)----(5)---(5)(5)---------------------------------|
Eb|-/5---5---5---5------------------------------------------------|
     .   .   .   .

intro guitar 2
eb|---------------------------------------------------------------|
Bb|---------------------------------------------------------------|
Gb|---------------------------------------------------------------|
Db|---------------------------------------------------------------|
Ab|-/12-10-9-7~------5~------12~----------------------------------|
Eb|---------------------------------------------------------------|

verse guitar 2
eb|----9--9------9--9------9--9------9--9-------------------------|
Bb|--10-10-----10-10-----10-10-----10-10--------------------------|
Gb|-----------------------------------------14~-14/7-xxxxxxxx-----|
Db|------------------------------------------x---x---xxxxxxxx-----|
Ab|-----------------------------------------12~-12/5-xxxxxxxx-----|
Eb|---------------------------------------------------------------|

chorus guitar 1
eb|---------------------------------------------------------------|
Bb|---------------------------------------------------------------|
Gb|-7-------------------------------------------------------------|
Db|-7------5--------7------5--------------------------------------|
Ab|-5------5--------7------5--------------------------------------|
Eb|--------3--------5------3--------------------------------------|

chorus guitar 2
eb|---------------------------------------------------------------|
Bb|---------------------------------------------------------------|
Gb|-14------12-11--14--12-11--14------12-11-14--------------------|
Db|--x-------x--x---x---x--x---x-------x--x--x--------------------|
Ab|-12------10--9--12--10--9--12------10--9-12--------------------|
Eb|---------------------------------------------------------------|

back into verse
chorus

bridge guitar 1
eb|--------------------------------|
Bb|--------------------------------|
Gb|--------------------------------|
Db|-44-44-44-44---55-55-55-55-5555-|4x
Ab|-55-55-55-55---55-55-55-55-5555-|
Eb|-22-22-22-22---33-33-33-33-3333-|

bridge guitar 2
eb|----------------------|
Bb|-------------------7~-|
Gb|--------6~-7~-9~------|
Db|--7~-9~---------------|
Ab|----------------------|
Eb|----------------------|

back into chorus twice

       eb|------------------|
       Bb|------------------|
       Gb|------------------|
       Db|---------------(5)|
       Ab|---(5)-(5)-(5)----|
end on Eb|-/3---3---3---3---|
            .   .   .   .
            
Submit corrections

comments powered by Disqus
↑ Back to top | Early November Tabs for I Want To Hear You Sad. Lyrics for acoustic guitar and electric guitar. 1 Tablatures and chords are parodies/interpretations of the original songs. You may use it for private study, scholarship, research or language learning purposes only