» » »

I Want To Hear You Sad Tabs (ver.1)

Artists:  A B C D E F G H I J K L M N O P Q R S T U V W X Y Z # 

I Want To Hear You Sad Tabs (ver.1)

Early November
Rating:
0/5 (0 votes)

Tabs too difficult? Try these video lessons and learn fast.
                Drive Thru Records = Great Bands

( )=harmonic
.= palm mute

Tuning: Db, Ab, db, Gb, Bb, Eb

intro/verse guitar 1 
eb|---------------------------------------------------------------|
Bb|---------------------------------------------------------------|
Gb|---------------(7)--------------(7)----------------(7)---------|
Db|---(7)-(7)-(7)------(7)-(7)-(7)--------(7)-(7)-(7)-------------|
Ab|---------------------------------------------------------------|
Db|-/5---5---5---5---/5---5---5---7-----/7---7---7---7------------|
     .   .   .   .    .   .   .   .      .   .   .   .

eb|---------------------------------------------------------------|
Bb|---------------------------------------------------------------|
Gb|---------------(7)---(7)---------------------------------------|
Db|---(7)-(7)-(7)----(7)---(7)(7)---------------------------------|
Ab|---------------------------------------------------------------|
Db|-/7---7---7---7------------------------------------------------|
     .   .   .   .

intro guitar 2
eb|---------------------------------------------------------------|
Bb|---------------------------------------------------------------|
Gb|---------------------------------------------------------------|
Db|---------------------------------------------------------------|
Ab|-/12-10-9-7~------5~------12~----------------------------------|
Db|---------------------------------------------------------------|

verse guitar 2
eb|----9--9------9--9------9--9------9--9-------------------------|
Bb|--10-10-----10-10-----10-10-----10-10--------------------------|
Gb|-----------------------------------------14~-14/7-xxxxxxxx-----|
Db|------------------------------------------x---x---xxxxxxxx-----|
Ab|-----------------------------------------12~-12/5-xxxxxxxx-----|
Db|---------------------------------------------------------------|

chorus guitar 1(Listen to song for strumming)
eb|---------------------------------------------------------------|
Bb|---------------------------------------------------------------|
Gb|-7-------------------------------------------------------------|
Db|-7------5--------7------5--------------------------------------|
Ab|-5------5--------7------5--------------------------------------|
Db|--------5--------7------5--------------------------------------|

chorus guitar 2
eb|---------------------------------------------------------------|
Bb|---------------------------------------------------------------|
Gb|-14------12-11--14--12-11--14------12-11-14--------------------|
Db|--x-------x--x---x---x--x---x-------x--x--x--------------------|
Ab|-12------10--9--12--10--9--12------10--9-12--------------------|
Db|---------------------------------------------------------------|

back to verse
chorus

bridge guitar 1
eb|--------------------------------|
Bb|--------------------------------|
Gb|--------------------------------|
Db|-44-44-44-44---55-55-55-55-5555-|4x
Ab|-44-44-44-44---55-55-55-55-5555-|
Db|-44-44-44-44---55-55-55-55-5555-|

bridge guitar 2
eb|----------------------|
Bb|-------------------7~-|
Gb|--------6~-7~-9~------|
Db|--7~-9~---------------|
Ab|----------------------|
Db|----------------------|

back into chorus twice

       eb|------------------|
       Bb|------------------|
       Db|---------------(7)|
       Ab|---(7)-(7)-(7)----|
       Ab|------------------|
end on Db|-/5---5---5---5---|
            .   .   .   .
            
Tabs too difficult? Try these video lessons and learn fast.




comments powered by Disqus
↑ Back to top | Tablatures and chords are parodies/interpretations of the original songs. You may use it for private study, scholarship, research or language learning purposes only